  0
SECTION
  2
HEADER
  9
$DIMCLRD
 70
6
  9
$DIMCLRE
 70
6
  9
$DIMCLRT
 70
4
  9
$DIMAUNIT
 70
  0
  9
$DIMGAP
 40
1
  9
$DIMASZ
 40
2
  9
$DIMTXT
 40
8
  0
ENDSEC
  0
SECTION
  2
TABLES
  0
TABLE
  2
LTYPE
  5
5
100
AcDbSymbolTable
 70
     8
  0
LTYPE
  5
12
100
AcDbSymbolTableRecord
100
AcDbLinetypeTableRecord
  2
BYBLOCK
 70
     0
  3

 72
    65
 73
     0
 40
0.0
  0
LTYPE
  5
13
100
AcDbSymbolTableRecord
100
AcDbLinetypeTableRecord
  2
BYLAYER
 70
     0
  3

 72
    65
 73
     0
 40
0.0
  0
LTYPE
  5
14
100
AcDbSymbolTableRecord
100
AcDbLinetypeTableRecord
  2
CONTINUOUS
 70
     0
  3
Solid line
 72
    65
 73
     0
 40
0.0
  0
LTYPE
  5
22
100
AcDbSymbolTableRecord
100
AcDbLinetypeTableRecord
  2
CENTER2
 70
     0
  3
Center (.5x) ___ _ ___ _ ___ _ ___ _ ___ _ ___
 72
    65
 73
     4
 40
28.575
 49
19.05
 49
-3.175
 49
3.175
 49
-3.175
  0
LTYPE
  5
26
100
AcDbSymbolTableRecord
100
AcDbLinetypeTableRecord
  2
PHANTOM2
 70
     0
  3
Phantom (.5x) ___ _ _ ___ _ _ ___ _ _ ___ _ _
 72
    65
 73
     6
 40
31.75
 49
15.875
 49
-3.175
 49
3.175
 49
-3.175
 49
3.175
 49
-3.175
  0
LTYPE
  5
2D
100
AcDbSymbolTableRecord
100
AcDbLinetypeTableRecord
  2
DASHED2
 70
     0
  3
Dashed (.5x) _ _ _ _ _ _ _ _ _ _ _ _ _ _ _ _ _
 72
    65
 73
     2
 40
9.525
 49
6.35
 49
-3.175
  0
LTYPE
  5
2E
100
AcDbSymbolTableRecord
100
AcDbLinetypeTableRecord
  2
DASHED
 70
     0
  3
Dashed __ __ __ __ __ __ __ __ __ __ __ __ __ _
 72
    65
 73
     2
 40
19.05
 49
12.7
 49
-6.35
  0
ENDTAB
  0
TABLE
  2
LAYER
100
AcDbSymbolTable
 70
7
  0
LAYER
100
AcDbSymbolTableRecord
100
AcDbLayerTableRecord
  2
ノズル
 70
  0
 62
 7
  6
CONTINUOUS
  0
LAYER
100
AcDbSymbolTableRecord
100
AcDbLayerTableRecord
  2
ヒーターブロック
 70
  0
 62
 7
  6
CONTINUOUS
  0
LAYER
100
AcDbSymbolTableRecord
100
AcDbLayerTableRecord
  2
受け
 70
  0
 62
 7
  6
CONTINUOUS
  0
LAYER
100
AcDbSymbolTableRecord
100
AcDbLayerTableRecord
  2
モータープレート
 70
  0
 62
 7
  6
CONTINUOUS
  0
LAYER
100
AcDbSymbolTableRecord
100
AcDbLayerTableRecord
  2
テンションアーム
 70
  0
 62
 7
  6
CONTINUOUS
  0
LAYER
100
AcDbSymbolTableRecord
100
AcDbLayerTableRecord
  2
ギヤ
 70
  0
 62
 7
  6
CONTINUOUS
  0
LAYER
100
AcDbSymbolTableRecord
100
AcDbLayerTableRecord
  2
組み図
 70
  0
 62
 7
  6
CONTINUOUS
  0
ENDTAB
  0
ENDSEC
  0
SECTION
  2
BLOCKS
  0
ENDSEC
  0
SECTION
  2
ENTITIES
  0
LINE
100
AcDbEntity
  8
組み図
  6
CONTINUOUS
 62
5
100
AcDbLine
 10
143.5
 20
-130.92264973081
 30
0.0
 11
162.5
 21
-130.92264973081
 31
0.0
  0
LINE
100
AcDbEntity
  8
組み図
  6
CONTINUOUS
 62
5
100
AcDbLine
 10
162.5
 20
-130.92264973081
 30
0.0
 11
162.5
 21
-119.92264973081
 31
0.0
  0
LINE
100
AcDbEntity
  8
組み図
  6
CONTINUOUS
 62
5
100
AcDbLine
 10
162.5
 20
-119.92264973081
 30
0.0
 11
143.5
 21
-119.92264973081
 31
0.0
  0
LINE
100
AcDbEntity
  8
組み図
  6
CONTINUOUS
 62
5
100
AcDbLine
 10
143.5
 20
-119.92264973081
 30
0.0
 11
143.5
 21
-130.92264973081
 31
0.0
  0
CIRCLE
100
AcDbEntity
  8
組み図
  6
CONTINUOUS
 62
5
100
AcDbCircle
 10
153
 20
-125.42264973081
 30
0.0
 40
1.5
  0
CIRCLE
100
AcDbEntity
  8
組み図
  6
CONTINUOUS
 62
5
100
AcDbCircle
 10
153
 20
-125.42264973081
 30
0.0
 40
1.25
  0
LINE
100
AcDbEntity
  8
組み図
  6
CONTINUOUS
 62
5
100
AcDbLine
 10
149
 20
-92.5
 30
0.0
 11
157
 21
-92.5
 31
0.0
  0
LINE
100
AcDbEntity
  8
組み図
  6
CONTINUOUS
 62
5
100
AcDbLine
 10
157
 20
-92.5
 30
0.0
 11
157
 21
-133.9
 31
0.0
  0
LINE
100
AcDbEntity
  8
組み図
  6
CONTINUOUS
 62
5
100
AcDbLine
 10
149
 20
-92.5
 30
0.0
 11
149
 21
-133.9
 31
0.0
  0
LINE
100
AcDbEntity
  8
組み図
  6
CONTINUOUS
 62
5
100
AcDbLine
 10
153.4
 20
-137.5
 30
0.0
 11
157
 21
-133.9
 31
0.0
  0
LINE
100
AcDbEntity
  8
組み図
  6
CONTINUOUS
 62
5
100
AcDbLine
 10
149
 20
-133.9
 30
0.0
 11
152.6
 21
-137.5
 31
0.0
  0
ARC
100
AcDbEntity
  8
組み図
  6
CONTINUOUS
 62
5
100
AcDbCircle
 10
153
 20
-133.497716701064
 30
0.0
 40
4.02222222222222
100
AcDbArc
 50
264.292643236167
 51
275.707356763832
  0
LINE
100
AcDbEntity
  8
受け
  6
CONTINUOUS
 62
2
100
AcDbLine
 10
11
 20
7.5
 30
0.0
 11
-11
 21
7.5
 31
0.0
  0
LINE
100
AcDbEntity
  8
受け
  6
CONTINUOUS
 62
2
100
AcDbLine
 10
-11
 20
7.5
 30
0.0
 11
-11
 21
-7.5
 31
0.0
  0
LINE
100
AcDbEntity
  8
受け
  6
CONTINUOUS
 62
2
100
AcDbLine
 10
-11
 20
-7.5
 30
0.0
 11
11
 21
-7.5
 31
0.0
  0
LINE
100
AcDbEntity
  8
受け
  6
CONTINUOUS
 62
2
100
AcDbLine
 10
11
 20
-7.5
 30
0.0
 11
11
 21
7.5
 31
0.0
  0
CIRCLE
100
AcDbEntity
  8
受け
  6
CONTINUOUS
 62
2
100
AcDbCircle
 10
33
 20
7.99360577730113E-15
 30
0.0
 40
2
  0
CIRCLE
100
AcDbEntity
  8
受け
  6
CONTINUOUS
 62
2
100
AcDbCircle
 10
87
 20
7.99360577730113E-15
 30
0.0
 40
2
  0
CIRCLE
100
AcDbEntity
  8
受け
  6
CONTINUOUS
 62
2
100
AcDbCircle
 10
33
 20
7.99360577730113E-15
 30
0.0
 40
1.65
  0
CIRCLE
100
AcDbEntity
  8
受け
  6
CONTINUOUS
 62
2
100
AcDbCircle
 10
87
 20
7.99360577730113E-15
 30
0.0
 40
1.65
  0
CIRCLE
100
AcDbEntity
  8
受け
  6
CONTINUOUS
 62
2
100
AcDbCircle
 10
1.77635683940025E-15
 20
43
 30
0.0
 40
4
  0
CIRCLE
100
AcDbEntity
  8
受け
  6
CONTINUOUS
 62
2
100
AcDbCircle
 10
1.77635683940025E-15
 20
43
 30
0.0
 40
3.5
  0
LINE
100
AcDbEntity
  8
受け
  6
DASHED2
 62
2
100
AcDbLine
 10
-9.39489005497899E-15
 20
79
 30
0.0
 11
11
 21
79
 31
0.0
  0
LINE
100
AcDbEntity
  8
受け
  6
DASHED2
 62
2
100
AcDbLine
 10
-1.15470053837926
 20
77
 30
0.0
 11
-9.39489005497899E-15
 21
79
 31
0.0
  0
LINE
100
AcDbEntity
  8
受け
  6
DASHED2
 62
2
100
AcDbLine
 10
-1.15470053837926
 20
77
 30
0.0
 11
-9.26331885367711E-15
 21
75
 31
0.0
  0
LINE
100
AcDbEntity
  8
受け
  6
DASHED2
 62
2
100
AcDbLine
 10
-11
 20
68
 30
0.0
 11
0
 21
68
 31
0.0
  0
LINE
100
AcDbEntity
  8
受け
  6
DASHED2
 62
2
100
AcDbLine
 10
0
 20
68
 30
0.0
 11
1.15470053837925
 21
66
 31
0.0
  0
LINE
100
AcDbEntity
  8
受け
  6
DASHED2
 62
2
100
AcDbLine
 10
4.63165942683856E-15
 20
64
 30
0.0
 11
1.15470053837925
 21
66
 31
0.0
  0
LINE
100
AcDbEntity
  8
受け
  6
DASHED2
 62
2
100
AcDbLine
 10
-11
 20
64
 30
0.0
 11
4.63165942683856E-15
 21
64
 31
0.0
  0
LINE
100
AcDbEntity
  8
受け
  6
DASHED2
 62
2
100
AcDbLine
 10
-11
 20
24
 30
0.0
 11
-2.34872251374475E-15
 21
24
 31
0.0
  0
LINE
100
AcDbEntity
  8
受け
  6
DASHED2
 62
2
100
AcDbLine
 10
-2.34872251374475E-15
 20
24
 30
0.0
 11
1.15470053837925
 21
26
 31
0.0
  0
LINE
100
AcDbEntity
  8
受け
  6
DASHED2
 62
2
100
AcDbLine
 10
4.63165942683856E-15
 20
28
 30
0.0
 11
1.15470053837925
 21
26
 31
0.0
  0
LINE
100
AcDbEntity
  8
受け
  6
DASHED2
 62
2
100
AcDbLine
 10
-11
 20
28
 30
0.0
 11
4.63165942683856E-15
 21
28
 31
0.0
  0
LINE
100
AcDbEntity
  8
受け
  6
DASHED2
 62
2
100
AcDbLine
 10
0
 20
25
 30
0.0
 11
11
 21
25
 31
0.0
  0
LINE
100
AcDbEntity
  8
受け
  6
DASHED2
 62
2
100
AcDbLine
 10
-1.15470053837926
 20
23
 30
0.0
 11
0
 21
25
 31
0.0
  0
LINE
100
AcDbEntity
  8
受け
  6
DASHED2
 62
2
100
AcDbLine
 10
-1.15470053837926
 20
23
 30
0.0
 11
-6.94748914025784E-15
 21
21
 31
0.0
  0
LINE
100
AcDbEntity
  8
受け
  6
DASHED2
 62
2
100
AcDbLine
 10
-6.94748914025784E-15
 20
21
 30
0.0
 11
11
 21
21
 31
0.0
  0
LINE
100
AcDbEntity
  8
受け
  6
CONTINUOUS
 62
2
100
AcDbLine
 10
-11
 20
88
 30
0.0
 11
11
 21
88
 31
0.0
  0
LINE
100
AcDbEntity
  8
受け
  6
CONTINUOUS
 62
2
100
AcDbLine
 10
98
 20
7.50000000000001
 30
0.0
 11
98
 21
-7.5
 31
0.0
  0
LINE
100
AcDbEntity
  8
受け
  6
CONTINUOUS
 62
2
100
AcDbLine
 10
53
 20
7.50000000000002
 30
0.0
 11
53
 21
-7.5
 31
0.0
  0
LINE
100
AcDbEntity
  8
受け
  6
DASHED2
 62
2
100
AcDbLine
 10
49
 20
7.50000000000002
 30
0.0
 11
49
 21
-7.5
 31
0.0
  0
LINE
100
AcDbEntity
  8
受け
  6
DASHED2
 62
2
100
AcDbLine
 10
57
 20
7.50000000000002
 30
0.0
 11
57
 21
-7.5
 31
0.0
  0
LINE
100
AcDbEntity
  8
受け
  6
DASHED2
 62
2
100
AcDbLine
 10
49.5
 20
7.50000000000002
 30
0.0
 11
49.5
 21
-7.5
 31
0.0
  0
LINE
100
AcDbEntity
  8
受け
  6
DASHED2
 62
2
100
AcDbLine
 10
56.5
 20
7.50000000000002
 30
0.0
 11
56.5
 21
-7.5
 31
0.0
  0
LINE
100
AcDbEntity
  8
受け
  6
DASHED2
 62
2
100
AcDbLine
 10
78.9
 20
7.50000000000004
 30
0.0
 11
78.9
 21
-7.49999999999997
 31
0.0
  0
LINE
100
AcDbEntity
  8
受け
  6
DASHED2
 62
2
100
AcDbLine
 10
84.1
 20
7.50000000000004
 30
0.0
 11
84.1
 21
-7.49999999999997
 31
0.0
  0
LINE
100
AcDbEntity
  8
受け
  6
DASHED2
 62
2
100
AcDbLine
 10
89.9
 20
7.50000000000002
 30
0.0
 11
89.9
 21
-7.49999999999999
 31
0.0
  0
LINE
100
AcDbEntity
  8
受け
  6
DASHED2
 62
2
100
AcDbLine
 10
95.1
 20
7.50000000000002
 30
0.0
 11
95.1
 21
-7.49999999999999
 31
0.0
  0
CIRCLE
100
AcDbEntity
  8
受け
  6
CONTINUOUS
 62
2
100
AcDbCircle
 10
0
 20
71.5
 30
0.0
 40
2.6
  0
CIRCLE
100
AcDbEntity
  8
受け
  6
CONTINUOUS
 62
2
100
AcDbCircle
 10
0
 20
82.5
 30
0.0
 40
2.6
  0
LINE
100
AcDbEntity
  8
受け
  6
CONTINUOUS
 62
2
100
AcDbLine
 10
-11
 20
88
 30
0.0
 11
-11
 21
18
 31
0.0
  0
LINE
100
AcDbEntity
  8
受け
  6
CONTINUOUS
 62
2
100
AcDbLine
 10
-11
 20
18
 30
0.0
 11
11
 21
18
 31
0.0
  0
LINE
100
AcDbEntity
  8
受け
  6
CONTINUOUS
 62
2
100
AcDbLine
 10
11
 20
88
 30
0.0
 11
11
 21
18
 31
0.0
  0
LINE
100
AcDbEntity
  8
受け
  6
CONTINUOUS
 62
2
100
AcDbLine
 10
28
 20
-7.5
 30
0.0
 11
98
 21
-7.5
 31
0.0
  0
LINE
100
AcDbEntity
  8
受け
  6
CONTINUOUS
 62
2
100
AcDbLine
 10
28
 20
7.50000000000002
 30
0.0
 11
28
 21
-7.5
 31
0.0
  0
LINE
100
AcDbEntity
  8
受け
  6
CONTINUOUS
 62
2
100
AcDbLine
 10
28
 20
7.50000000000002
 30
0.0
 11
98
 21
7.50000000000001
 31
0.0
  0
LINE
100
AcDbEntity
  8
モータープレート
  6
CONTINUOUS
 62
8
100
AcDbLine
 10
-32
 20
38
 30
0.0
 11
-32
 21
-22
 31
0.0
  0
LINE
100
AcDbEntity
  8
モータープレート
  6
CONTINUOUS
 62
8
100
AcDbLine
 10
-32
 20
-22
 30
0.0
 11
38
 21
-22
 31
0.0
  0
LINE
100
AcDbEntity
  8
モータープレート
  6
CONTINUOUS
 62
8
100
AcDbLine
 10
38
 20
38
 30
0.0
 11
38
 21
-22
 31
0.0
  0
LINE
100
AcDbEntity
  8
モータープレート
  6
CONTINUOUS
 62
8
100
AcDbLine
 10
-32
 20
38
 30
0.0
 11
38
 21
38
 31
0.0
  0
LINE
100
AcDbEntity
  8
モータープレート
  6
CONTINUOUS
 62
8
100
AcDbLine
 10
-28
 20
-12.5
 30
0.0
 11
-26
 21
-12.5
 31
0.0
  0
ARC
100
AcDbEntity
  8
モータープレート
  6
CONTINUOUS
 62
8
100
AcDbCircle
 10
-28
 20
-14.5
 30
0.0
 40
2
100
AcDbArc
 50
90
 51
270
  0
LINE
100
AcDbEntity
  8
モータープレート
  6
CONTINUOUS
 62
8
100
AcDbLine
 10
-28
 20
-16.5
 30
0.0
 11
-26
 21
-16.5
 31
0.0
  0
ARC
100
AcDbEntity
  8
モータープレート
  6
CONTINUOUS
 62
8
100
AcDbCircle
 10
-26
 20
-14.5
 30
0.0
 40
2
100
AcDbArc
 50
270
 51
90
  0
LINE
100
AcDbEntity
  8
モータープレート
  6
CONTINUOUS
 62
8
100
AcDbLine
 10
26
 20
-12.5
 30
0.0
 11
28
 21
-12.5
 31
0.0
  0
ARC
100
AcDbEntity
  8
モータープレート
  6
CONTINUOUS
 62
8
100
AcDbCircle
 10
26
 20
-14.5
 30
0.0
 40
2
100
AcDbArc
 50
90
 51
270
  0
LINE
100
AcDbEntity
  8
モータープレート
  6
CONTINUOUS
 62
8
100
AcDbLine
 10
28
 20
-16.5
 30
0.0
 11
26
 21
-16.5
 31
0.0
  0
ARC
100
AcDbEntity
  8
モータープレート
  6
CONTINUOUS
 62
8
100
AcDbCircle
 10
28
 20
-14.5
 30
0.0
 40
2
100
AcDbArc
 50
270
 51
90
  0
CIRCLE
100
AcDbEntity
  8
モータープレート
  6
CONTINUOUS
 62
8
100
AcDbCircle
 10
0
 20
0
 30
0.0
 40
6
  0
LINE
100
AcDbEntity
  8
モータープレート
  6
CENTER2
 62
8
100
AcDbLine
 10
-17
 20
21
 30
0.0
 11
17
 21
21
 31
0.0
  0
LINE
100
AcDbEntity
  8
モータープレート
  6
CENTER2
 62
8
100
AcDbLine
 10
21
 20
17
 30
0.0
 11
21
 21
-17
 31
0.0
  0
LINE
100
AcDbEntity
  8
モータープレート
  6
CENTER2
 62
8
100
AcDbLine
 10
-17
 20
-21
 30
0.0
 11
17
 21
-21
 31
0.0
  0
LINE
100
AcDbEntity
  8
モータープレート
  6
CENTER2
 62
8
100
AcDbLine
 10
-21
 20
17
 30
0.0
 11
-21
 21
-17
 31
0.0
  0
LINE
100
AcDbEntity
  8
モータープレート
  6
CENTER2
 62
8
100
AcDbLine
 10
17
 20
21
 30
0.0
 11
21
 21
17
 31
0.0
  0
LINE
100
AcDbEntity
  8
モータープレート
  6
CENTER2
 62
8
100
AcDbLine
 10
21
 20
-17
 30
0.0
 11
17
 21
-21
 31
0.0
  0
LINE
100
AcDbEntity
  8
モータープレート
  6
CENTER2
 62
8
100
AcDbLine
 10
-17
 20
-21
 30
0.0
 11
-21
 21
-17
 31
0.0
  0
LINE
100
AcDbEntity
  8
モータープレート
  6
CENTER2
 62
8
100
AcDbLine
 10
-21
 20
17
 30
0.0
 11
-17
 21
21
 31
0.0
  0
CIRCLE
100
AcDbEntity
  8
モータープレート
  6
CONTINUOUS
 62
8
100
AcDbCircle
 10
0
 20
0
 30
0.0
 40
11
  0
CIRCLE
100
AcDbEntity
  8
モータープレート
  6
CONTINUOUS
 62
8
100
AcDbCircle
 10
0
 20
0
 30
0.0
 40
6.5
  0
CIRCLE
100
AcDbEntity
  8
モータープレート
  6
CONTINUOUS
 62
8
100
AcDbCircle
 10
-15.5
 20
15.5
 30
0.0
 40
2.1
  0
CIRCLE
100
AcDbEntity
  8
モータープレート
  6
CONTINUOUS
 62
8
100
AcDbCircle
 10
15.5
 20
15.5
 30
0.0
 40
2.1
  0
CIRCLE
100
AcDbEntity
  8
モータープレート
  6
CONTINUOUS
 62
8
100
AcDbCircle
 10
15.5
 20
-15.5
 30
0.0
 40
2.1
  0
CIRCLE
100
AcDbEntity
  8
モータープレート
  6
CONTINUOUS
 62
8
100
AcDbCircle
 10
-15.5
 20
-15.5
 30
0.0
 40
2.1
  0
CIRCLE
100
AcDbEntity
  8
モータープレート
  6
CONTINUOUS
 62
8
100
AcDbCircle
 10
-21
 20
28
 30
0.0
 40
2
  0
CIRCLE
100
AcDbEntity
  8
モータープレート
  6
CONTINUOUS
 62
8
100
AcDbCircle
 10
-21
 20
28
 30
0.0
 40
1.65
  0
CIRCLE
100
AcDbEntity
  8
ギヤ
  6
CONTINUOUS
 62
5
100
AcDbCircle
 10
0
 20
0
 30
0.0
 40
2.5
  0
LINE
100
AcDbEntity
  8
ギヤ
  6
CONTINUOUS
 62
5
100
AcDbLine
 10
38.4999999999999
 20
6.50000000000007
 30
0.0
 11
38.5
 21
-6.49999999999998
 31
0.0
  0
LINE
100
AcDbEntity
  8
ギヤ
  6
CONTINUOUS
 62
5
100
AcDbLine
 10
25.5
 20
6.50000000000007
 30
0.0
 11
25.4999999999999
 21
-6.50000000000011
 31
0.0
  0
LINE
100
AcDbEntity
  8
ギヤ
  6
CONTINUOUS
 62
5
100
AcDbLine
 10
21
 20
5.00000000000005
 30
0.0
 11
25.5
 21
5.00000000000004
 31
0.0
  0
LINE
100
AcDbEntity
  8
ギヤ
  6
CONTINUOUS
 62
5
100
AcDbLine
 10
21
 20
5.00000000000005
 30
0.0
 11
21
 21
-4.99999999999997
 31
0.0
  0
LINE
100
AcDbEntity
  8
ギヤ
  6
CONTINUOUS
 62
5
100
AcDbLine
 10
21
 20
-4.99999999999997
 30
0.0
 11
25.5
 21
-4.99999999999996
 31
0.0
  0
CIRCLE
100
AcDbEntity
  8
ギヤ
  6
CONTINUOUS
 62
5
100
AcDbCircle
 10
0
 20
0
 30
0.0
 40
5.00000000000007
  0
CIRCLE
100
AcDbEntity
  8
ギヤ
  6
CONTINUOUS
 62
5
100
AcDbCircle
 10
23.5
 20
0
 30
0.0
 40
1.5
  0
CIRCLE
100
AcDbEntity
  8
ギヤ
  6
CONTINUOUS
 62
5
100
AcDbCircle
 10
23.5
 20
0
 30
0.0
 40
1.25
  0
LINE
100
AcDbEntity
  8
ギヤ
  6
DASHED2
 62
5
100
AcDbLine
 10
2
 20
-1.5
 30
0.0
 11
4.7696960070848
 21
-1.5
 31
0.0
  0
LINE
100
AcDbEntity
  8
ギヤ
  6
DASHED2
 62
5
100
AcDbLine
 10
2.16506350946111
 20
-1.25
 30
0.0
 11
4.84122918275935
 21
-1.25
 31
0.0
  0
LINE
100
AcDbEntity
  8
ギヤ
  6
DASHED2
 62
5
100
AcDbLine
 10
2.16506350946111
 20
1.25
 30
0.0
 11
4.84122918275935
 21
1.25
 31
0.0
  0
LINE
100
AcDbEntity
  8
ギヤ
  6
DASHED2
 62
5
100
AcDbLine
 10
2
 20
1.5
 30
0.0
 11
4.7696960070848
 21
1.5
 31
0.0
  0
LINE
100
AcDbEntity
  8
ギヤ
  6
CONTINUOUS
 62
5
100
AcDbLine
 10
-0.61820189211619
 20
5.88179810788376
 30
0.0
 11
2.8421709430404E-14
 21
6.5
 31
0.0
  0
LINE
100
AcDbEntity
  8
ギヤ
  6
CONTINUOUS
 62
5
100
AcDbLine
 10
-1.35142599031542
 20
6.35795940476974
 30
0.0
 11
-0.618201892115934
 21
5.88179810788361
 31
0.0
  0
LINE
100
AcDbEntity
  8
ギヤ
  6
CONTINUOUS
 62
5
100
AcDbLine
 10
-1.82758728720137
 20
5.62473530657052
 30
0.0
 11
-1.35142599031542
 21
6.35795940476974
 31
0.0
  0
LINE
100
AcDbEntity
  8
ギヤ
  6
CONTINUOUS
 62
5
100
AcDbLine
 10
-2.6437881799927
 20
5.93804547467692
 30
0.0
 11
-1.82758728720108
 21
5.62473530657043
 31
0.0
  0
LINE
100
AcDbEntity
  8
ギヤ
  6
CONTINUOUS
 62
5
100
AcDbLine
 10
-2.95709834809904
 20
5.1218445818856
 30
0.0
 11
-2.64378817999267
 21
5.93804547467692
 31
0.0
  0
LINE
100
AcDbEntity
  8
ギヤ
  6
CONTINUOUS
 62
5
100
AcDbLine
 10
-3.82060413990106
 20
5.25861046343717
 30
0.0
 11
-2.95709834809875
 21
5.12184458188558
 31
0.0
  0
LINE
100
AcDbEntity
  8
ギヤ
  6
CONTINUOUS
 62
5
100
AcDbLine
 10
-3.95737002145259
 20
4.39510467163517
 30
0.0
 11
-3.82060413990106
 21
5.25861046343717
 31
0.0
  0
LINE
100
AcDbEntity
  8
ギヤ
  6
CONTINUOUS
 62
5
100
AcDbLine
 10
-4.83044136560306
 20
4.34934894133259
 30
0.0
 11
-3.95737002145231
 21
4.3951046716352
 31
0.0
  0
LINE
100
AcDbEntity
  8
ギヤ
  6
CONTINUOUS
 62
5
100
AcDbLine
 10
-4.78468563530043
 20
3.47627759718217
 30
0.0
 11
-4.83044136560304
 21
4.3493489413326
 31
0.0
  0
LINE
100
AcDbEntity
  8
ギヤ
  6
CONTINUOUS
 62
5
100
AcDbLine
 10
-5.62916512459884
 20
3.25000000000001
 30
0.0
 11
-4.78468563530015
 21
3.47627759718225
 31
0.0
  0
LINE
100
AcDbEntity
  8
ギヤ
  6
CONTINUOUS
 62
5
100
AcDbLine
 10
-5.40288752741668
 20
2.40552051070166
 30
0.0
 11
-5.62916512459884
 21
3.25000000000003
 31
0.0
  0
LINE
100
AcDbEntity
  8
ギヤ
  6
CONTINUOUS
 62
5
100
AcDbLine
 10
-6.18186735591848
 20
2.00861046343718
 30
0.0
 11
-5.40288752741643
 21
2.4055205107018
 31
0.0
  0
LINE
100
AcDbEntity
  8
ギヤ
  6
CONTINUOUS
 62
5
100
AcDbLine
 10
-5.78495730865401
 20
1.2296306349354
 30
0.0
 11
-6.18186735591848
 21
2.00861046343719
 31
0.0
  0
LINE
100
AcDbEntity
  8
ギヤ
  6
CONTINUOUS
 62
5
100
AcDbLine
 10
-6.46439231989379
 20
0.679435011239768
 30
0.0
 11
-5.78495730865379
 21
1.2296306349356
 31
0.0
  0
LINE
100
AcDbEntity
  8
ギヤ
  6
CONTINUOUS
 62
5
100
AcDbLine
 10
-5.91419669619813
 20
3.5527136788005E-14
 30
0.0
 11
-6.46439231989376
 21
0.679435011239775
 31
0.0
  0
LINE
100
AcDbEntity
  8
ギヤ
  6
CONTINUOUS
 62
5
100
AcDbLine
 10
-6.46439231989379
 20
-0.679435011239732
 30
0.0
 11
-5.91419669619796
 21
2.77111666946439E-13
 31
0.0
  0
LINE
100
AcDbEntity
  8
ギヤ
  6
CONTINUOUS
 62
5
100
AcDbLine
 10
-5.78495730865401
 20
-1.22963063493533
 30
0.0
 11
-6.46439231989379
 21
-0.679435011239718
 31
0.0
  0
LINE
100
AcDbEntity
  8
ギヤ
  6
CONTINUOUS
 62
5
100
AcDbLine
 10
-6.18186735591851
 20
-2.00861046343714
 30
0.0
 11
-5.7849573086539
 21
-1.22963063493506
 31
0.0
  0
LINE
100
AcDbEntity
  8
ギヤ
  6
CONTINUOUS
 62
5
100
AcDbLine
 10
-5.40288752741671
 20
-2.40552051070159
 30
0.0
 11
-6.18186735591851
 21
-2.00861046343713
 31
0.0
  0
LINE
100
AcDbEntity
  8
ギヤ
  6
CONTINUOUS
 62
5
100
AcDbLine
 10
-5.62916512459887
 20
-3.24999999999999
 30
0.0
 11
-5.40288752741665
 21
-2.4055205107013
 31
0.0
  0
LINE
100
AcDbEntity
  8
ギヤ
  6
CONTINUOUS
 62
5
100
AcDbLine
 10
-4.78468563530049
 20
-3.4762775971821
 30
0.0
 11
-5.62916512459887
 21
-3.24999999999997
 31
0.0
  0
LINE
100
AcDbEntity
  8
ギヤ
  6
CONTINUOUS
 62
5
100
AcDbLine
 10
-4.83044136560306
 20
-4.34934894133256
 30
0.0
 11
-4.78468563530049
 21
-3.47627759718181
 31
0.0
  0
LINE
100
AcDbEntity
  8
ギヤ
  6
CONTINUOUS
 62
5
100
AcDbLine
 10
-3.95737002145265
 20
-4.39510467163512
 30
0.0
 11
-4.83044136560309
 21
-4.34934894133256
 31
0.0
  0
LINE
100
AcDbEntity
  8
ギヤ
  6
CONTINUOUS
 62
5
100
AcDbLine
 10
-3.82060413990109
 20
-5.25861046343715
 30
0.0
 11
-3.9573700214527
 21
-4.39510467163483
 31
0.0
  0
LINE
100
AcDbEntity
  8
ギヤ
  6
CONTINUOUS
 62
5
100
AcDbLine
 10
-2.95709834809909
 20
-5.12184458188557
 30
0.0
 11
-3.82060413990109
 21
-5.25861046343714
 31
0.0
  0
LINE
100
AcDbEntity
  8
ギヤ
  6
CONTINUOUS
 62
5
100
AcDbLine
 10
-2.64378817999273
 20
-5.9380454746769
 30
0.0
 11
-2.95709834809921
 21
-5.1218445818853
 31
0.0
  0
LINE
100
AcDbEntity
  8
ギヤ
  6
CONTINUOUS
 62
5
100
AcDbLine
 10
-1.82758728720142
 20
-5.6247353065705
 30
0.0
 11
-2.64378817999273
 21
-5.93804547467689
 31
0.0
  0
LINE
100
AcDbEntity
  8
ギヤ
  6
CONTINUOUS
 62
5
100
AcDbLine
 10
-1.35142599031545
 20
-6.35795940476974
 30
0.0
 11
-1.8275872872016
 21
-5.62473530657026
 31
0.0
  0
LINE
100
AcDbEntity
  8
ギヤ
  6
CONTINUOUS
 62
5
100
AcDbLine
 10
-0.618201892116247
 20
-5.88179810788375
 30
0.0
 11
-1.35142599031548
 21
-6.35795940476973
 31
0.0
  0
LINE
100
AcDbEntity
  8
ギヤ
  6
CONTINUOUS
 62
5
100
AcDbLine
 10
-2.8421709430404E-14
 20
-6.50000000000001
 30
0.0
 11
-0.618201892116474
 21
-5.88179810788355
 31
0.0
  0
LINE
100
AcDbEntity
  8
ギヤ
  6
CONTINUOUS
 62
5
100
AcDbLine
 10
0.61820189211619
 20
-5.88179810788376
 30
0.0
 11
-2.8421709430404E-14
 21
-6.5
 31
0.0
  0
LINE
100
AcDbEntity
  8
ギヤ
  6
CONTINUOUS
 62
5
100
AcDbLine
 10
1.35142599031542
 20
-6.35795940476974
 30
0.0
 11
0.618201892115934
 21
-5.88179810788361
 31
0.0
  0
LINE
100
AcDbEntity
  8
ギヤ
  6
CONTINUOUS
 62
5
100
AcDbLine
 10
1.82758728720137
 20
-5.62473530657052
 30
0.0
 11
1.35142599031542
 21
-6.35795940476974
 31
0.0
  0
LINE
100
AcDbEntity
  8
ギヤ
  6
CONTINUOUS
 62
5
100
AcDbLine
 10
2.6437881799927
 20
-5.93804547467692
 30
0.0
 11
1.82758728720108
 21
-5.62473530657043
 31
0.0
  0
LINE
100
AcDbEntity
  8
ギヤ
  6
CONTINUOUS
 62
5
100
AcDbLine
 10
2.95709834809904
 20
-5.1218445818856
 30
0.0
 11
2.64378817999267
 21
-5.93804547467692
 31
0.0
  0
LINE
100
AcDbEntity
  8
ギヤ
  6
CONTINUOUS
 62
5
100
AcDbLine
 10
3.82060413990106
 20
-5.25861046343717
 30
0.0
 11
2.95709834809875
 21
-5.12184458188558
 31
0.0
  0
LINE
100
AcDbEntity
  8
ギヤ
  6
CONTINUOUS
 62
5
100
AcDbLine
 10
3.95737002145259
 20
-4.39510467163517
 30
0.0
 11
3.82060413990106
 21
-5.25861046343717
 31
0.0
  0
LINE
100
AcDbEntity
  8
ギヤ
  6
CONTINUOUS
 62
5
100
AcDbLine
 10
4.83044136560306
 20
-4.34934894133259
 30
0.0
 11
3.95737002145231
 21
-4.3951046716352
 31
0.0
  0
LINE
100
AcDbEntity
  8
ギヤ
  6
CONTINUOUS
 62
5
100
AcDbLine
 10
4.78468563530043
 20
-3.47627759718216
 30
0.0
 11
4.83044136560304
 21
-4.3493489413326
 31
0.0
  0
LINE
100
AcDbEntity
  8
ギヤ
  6
CONTINUOUS
 62
5
100
AcDbLine
 10
5.62916512459884
 20
-3.25000000000001
 30
0.0
 11
4.78468563530015
 21
-3.47627759718225
 31
0.0
  0
LINE
100
AcDbEntity
  8
ギヤ
  6
CONTINUOUS
 62
5
100
AcDbLine
 10
5.40288752741668
 20
-2.40552051070166
 30
0.0
 11
5.62916512459884
 21
-3.25000000000003
 31
0.0
  0
LINE
100
AcDbEntity
  8
ギヤ
  6
CONTINUOUS
 62
5
100
AcDbLine
 10
6.18186735591848
 20
-2.00861046343718
 30
0.0
 11
5.40288752741643
 21
-2.40552051070181
 31
0.0
  0
LINE
100
AcDbEntity
  8
ギヤ
  6
CONTINUOUS
 62
5
100
AcDbLine
 10
5.78495730865401
 20
-1.2296306349354
 30
0.0
 11
6.18186735591848
 21
-2.00861046343719
 31
0.0
  0
LINE
100
AcDbEntity
  8
ギヤ
  6
CONTINUOUS
 62
5
100
AcDbLine
 10
6.46439231989379
 20
-0.679435011239768
 30
0.0
 11
5.78495730865379
 21
-1.2296306349356
 31
0.0
  0
LINE
100
AcDbEntity
  8
ギヤ
  6
CONTINUOUS
 62
5
100
AcDbLine
 10
5.91419669619813
 20
-3.5527136788005E-14
 30
0.0
 11
6.46439231989376
 21
-0.679435011239775
 31
0.0
  0
LINE
100
AcDbEntity
  8
ギヤ
  6
CONTINUOUS
 62
5
100
AcDbLine
 10
6.46439231989379
 20
0.679435011239732
 30
0.0
 11
5.91419669619796
 21
-2.70006239588838E-13
 31
0.0
  0
LINE
100
AcDbEntity
  8
ギヤ
  6
CONTINUOUS
 62
5
100
AcDbLine
 10
5.78495730865401
 20
1.22963063493533
 30
0.0
 11
6.46439231989379
 21
0.679435011239718
 31
0.0
  0
LINE
100
AcDbEntity
  8
ギヤ
  6
CONTINUOUS
 62
5
100
AcDbLine
 10
6.18186735591851
 20
2.00861046343714
 30
0.0
 11
5.7849573086539
 21
1.22963063493506
 31
0.0
  0
LINE
100
AcDbEntity
  8
ギヤ
  6
CONTINUOUS
 62
5
100
AcDbLine
 10
5.40288752741671
 20
2.40552051070159
 30
0.0
 11
6.18186735591851
 21
2.00861046343713
 31
0.0
  0
LINE
100
AcDbEntity
  8
ギヤ
  6
CONTINUOUS
 62
5
100
AcDbLine
 10
5.62916512459887
 20
3.24999999999999
 30
0.0
 11
5.40288752741665
 21
2.4055205107013
 31
0.0
  0
LINE
100
AcDbEntity
  8
ギヤ
  6
CONTINUOUS
 62
5
100
AcDbLine
 10
4.78468563530049
 20
3.47627759718211
 30
0.0
 11
5.62916512459887
 21
3.24999999999998
 31
0.0
  0
LINE
100
AcDbEntity
  8
ギヤ
  6
CONTINUOUS
 62
5
100
AcDbLine
 10
4.83044136560306
 20
4.34934894133257
 30
0.0
 11
4.78468563530049
 21
3.47627759718181
 31
0.0
  0
LINE
100
AcDbEntity
  8
ギヤ
  6
CONTINUOUS
 62
5
100
AcDbLine
 10
3.95737002145265
 20
4.39510467163512
 30
0.0
 11
4.83044136560309
 21
4.34934894133256
 31
0.0
  0
LINE
100
AcDbEntity
  8
ギヤ
  6
CONTINUOUS
 62
5
100
AcDbLine
 10
3.82060413990109
 20
5.25861046343715
 30
0.0
 11
3.9573700214527
 21
4.39510467163483
 31
0.0
  0
LINE
100
AcDbEntity
  8
ギヤ
  6
CONTINUOUS
 62
5
100
AcDbLine
 10
2.95709834809909
 20
5.12184458188557
 30
0.0
 11
3.82060413990109
 21
5.25861046343714
 31
0.0
  0
LINE
100
AcDbEntity
  8
ギヤ
  6
CONTINUOUS
 62
5
100
AcDbLine
 10
2.64378817999273
 20
5.9380454746769
 30
0.0
 11
2.95709834809924
 21
5.1218445818853
 31
0.0
  0
LINE
100
AcDbEntity
  8
ギヤ
  6
CONTINUOUS
 62
5
100
AcDbLine
 10
1.82758728720142
 20
5.6247353065705
 30
0.0
 11
2.64378817999273
 21
5.9380454746769
 31
0.0
  0
LINE
100
AcDbEntity
  8
ギヤ
  6
CONTINUOUS
 62
5
100
AcDbLine
 10
1.35142599031545
 20
6.35795940476974
 30
0.0
 11
1.8275872872016
 21
5.62473530657026
 31
0.0
  0
LINE
100
AcDbEntity
  8
ギヤ
  6
CONTINUOUS
 62
5
100
AcDbLine
 10
0.618201892116275
 20
5.88179810788375
 30
0.0
 11
1.35142599031548
 21
6.35795940476973
 31
0.0
  0
LINE
100
AcDbEntity
  8
ギヤ
  6
CONTINUOUS
 62
5
100
AcDbLine
 10
2.8421709430404E-14
 20
6.50000000000001
 30
0.0
 11
0.618201892116474
 21
5.88179810788355
 31
0.0
  0
LINE
100
AcDbEntity
  8
ギヤ
  6
CONTINUOUS
 62
5
100
AcDbLine
 10
31.5
 20
5.59999999999997
 30
0.0
 11
31.5000000000001
 21
-5.59999999999999
 31
0.0
  0
LINE
100
AcDbEntity
  8
ギヤ
  6
CONTINUOUS
 62
5
100
AcDbLine
 10
25.5
 20
6.50000000000007
 30
0.0
 11
30.5000000000009
 21
6.50000000000002
 31
0.0
  0
LINE
100
AcDbEntity
  8
ギヤ
  6
CONTINUOUS
 62
5
100
AcDbLine
 10
30.5000000000009
 20
6.50000000000002
 30
0.0
 11
31.5
 21
5.49999999999996
 31
0.0
  0
LINE
100
AcDbEntity
  8
ギヤ
  6
CONTINUOUS
 62
5
100
AcDbLine
 10
31.5
 20
5.49999999999996
 30
0.0
 11
32.5000000000007
 21
6.50000000000013
 31
0.0
  0
LINE
100
AcDbEntity
  8
ギヤ
  6
CONTINUOUS
 62
5
100
AcDbLine
 10
32.5000000000007
 20
6.50000000000013
 30
0.0
 11
38.4999999999999
 21
6.50000000000007
 31
0.0
  0
LINE
100
AcDbEntity
  8
ギヤ
  6
CONTINUOUS
 62
5
100
AcDbLine
 10
32.5
 20
-6.50000000000006
 30
0.0
 11
38.5
 21
-6.49999999999998
 31
0.0
  0
LINE
100
AcDbEntity
  8
ギヤ
  6
CONTINUOUS
 62
5
100
AcDbLine
 10
31.5000000000001
 20
-5.49999999999999
 30
0.0
 11
32.5
 21
-6.50000000000006
 31
0.0
  0
LINE
100
AcDbEntity
  8
ギヤ
  6
CONTINUOUS
 62
5
100
AcDbLine
 10
30.5000000000032
 20
-6.49999999999989
 30
0.0
 11
31.5000000000001
 21
-5.49999999999999
 31
0.0
  0
LINE
100
AcDbEntity
  8
ギヤ
  6
CONTINUOUS
 62
5
100
AcDbLine
 10
25.4999999999999
 20
-6.50000000000011
 30
0.0
 11
30.5000000000032
 21
-6.49999999999989
 31
0.0
  0
LINE
100
AcDbEntity
  8
ギヤ
  6
CONTINUOUS
 62
5
100
AcDbLine
 10
30.5000000000009
 20
6.50000000000002
 30
0.0
 11
30.5000000000032
 21
-6.49999999999989
 31
0.0
  0
LINE
100
AcDbEntity
  8
ギヤ
  6
CONTINUOUS
 62
5
100
AcDbLine
 10
32.5
 20
-6.50000000000006
 30
0.0
 11
32.5000000000007
 21
6.50000000000013
 31
0.0
  0
CIRCLE
100
AcDbEntity
  8
テンションアーム
  6
CONTINUOUS
 62
5
100
AcDbCircle
 10
7.50000000000001
 20
-28
 30
0.0
 40
2.5
  0
CIRCLE
100
AcDbEntity
  8
テンションアーム
  6
CONTINUOUS
 62
5
100
AcDbCircle
 10
7.50000000000001
 20
-28
 30
0.0
 40
2.1
  0
CIRCLE
100
AcDbEntity
  8
テンションアーム
  6
CONTINUOUS
 62
5
100
AcDbCircle
 10
0
 20
0
 30
0.0
 40
2
  0
CIRCLE
100
AcDbEntity
  8
テンションアーム
  6
CONTINUOUS
 62
5
100
AcDbCircle
 10
7.50000000000001
 20
-28
 30
0.0
 40
6
  0
LINE
100
AcDbEntity
  8
テンションアーム
  6
CONTINUOUS
 62
5
100
AcDbLine
 10
-4.99999999999999
 20
-33
 30
0.0
 11
12.5
 21
-33
 31
0.0
  0
LINE
100
AcDbEntity
  8
テンションアーム
  6
CONTINUOUS
 62
5
100
AcDbLine
 10
12.5
 20
18
 30
0.0
 11
12.5
 21
-33
 31
0.0
  0
LINE
100
AcDbEntity
  8
テンションアーム
  6
CONTINUOUS
 62
5
100
AcDbLine
 10
12.5
 20
18
 30
0.0
 11
65
 21
18
 31
0.0
  0
LINE
100
AcDbEntity
  8
テンションアーム
  6
CONTINUOUS
 62
5
100
AcDbLine
 10
65
 20
30
 30
0.0
 11
65
 21
18
 31
0.0
  0
LINE
100
AcDbEntity
  8
テンションアーム
  6
CONTINUOUS
 62
5
100
AcDbLine
 10
-4.99999999999999
 20
30
 30
0.0
 11
65
 21
30
 31
0.0
  0
LINE
100
AcDbEntity
  8
テンションアーム
  6
CONTINUOUS
 62
5
100
AcDbLine
 10
-4.99999999999999
 20
30
 30
0.0
 11
-4.99999999999999
 21
-33
 31
0.0
  0
CIRCLE
100
AcDbEntity
  8
ノズル
  6
CONTINUOUS
 62
5
100
AcDbCircle
 10
0
 20
0
 30
0.0
 40
4
  0
CIRCLE
100
AcDbEntity
  8
ノズル
  6
CONTINUOUS
 62
5
100
AcDbCircle
 10
0
 20
0
 30
0.0
 40
3.5
  0
CIRCLE
100
AcDbEntity
  8
ノズル
  6
CONTINUOUS
 62
5
100
AcDbCircle
 10
0
 20
0
 30
0.0
 40
0.2
  0
CIRCLE
100
AcDbEntity
  8
ノズル
  6
CONTINUOUS
 62
5
100
AcDbCircle
 10
0
 20
0
 30
0.0
 40
0.6
  0
LINE
100
AcDbEntity
  8
ノズル
  6
CONTINUOUS
 62
5
100
AcDbLine
 10
-3.5
 20
60
 30
0.0
 11
-3.5
 21
18.1
 31
0.0
  0
LINE
100
AcDbEntity
  8
ノズル
  6
CONTINUOUS
 62
5
100
AcDbLine
 10
3.5
 20
60
 30
0.0
 11
3.50000000000001
 21
18.1
 31
0.0
  0
LINE
100
AcDbEntity
  8
ノズル
  6
CONTINUOUS
 62
5
100
AcDbLine
 10
-4
 20
60
 30
0.0
 11
4
 21
60
 31
0.0
  0
LINE
100
AcDbEntity
  8
ノズル
  6
CONTINUOUS
 62
5
100
AcDbLine
 10
-0.199999999999989
 20
17
 30
0.0
 11
-0.199999999999989
 21
14.9850365296994
 31
0.0
  0
LINE
100
AcDbEntity
  8
ノズル
  6
CONTINUOUS
 62
5
100
AcDbLine
 10
0.199999999999989
 20
17
 30
0.0
 11
0.199999999999989
 21
14.9850365296994
 31
0.0
  0
LINE
100
AcDbEntity
  8
ノズル
  6
CONTINUOUS
 62
5
100
AcDbLine
 10
4
 20
60
 30
0.0
 11
3.99999999999999
 21
18.6
 31
0.0
  0
LINE
100
AcDbEntity
  8
ノズル
  6
CONTINUOUS
 62
5
100
AcDbLine
 10
-4
 20
60
 30
0.0
 11
-4
 21
18.6
 31
0.0
  0
LINE
100
AcDbEntity
  8
ノズル
  6
CONTINUOUS
 62
5
100
AcDbLine
 10
0.422222222222217
 20
15.0222222222222
 30
0.0
 11
4
 21
18.6
 31
0.0
  0
LINE
100
AcDbEntity
  8
ノズル
  6
CONTINUOUS
 62
5
100
AcDbLine
 10
-4
 20
18.6
 30
0.0
 11
-0.400000000000006
 21
15
 31
0.0
  0
ARC
100
AcDbEntity
  8
ノズル
  6
CONTINUOUS
 62
5
100
AcDbCircle
 10
0
 20
19.0022832989355
 30
0.0
 40
4.02222222222222
100
AcDbArc
 50
264.292643236167
 51
267.149863292916
  0
LINE
100
AcDbEntity
  8
ノズル
  6
CONTINUOUS
 62
5
100
AcDbLine
 10
-1
 20
21
 30
0.0
 11
-1
 21
17.4618802153517
 31
0.0
  0
LINE
100
AcDbEntity
  8
ノズル
  6
CONTINUOUS
 62
5
100
AcDbLine
 10
-1
 20
17.4618802153517
 30
0.0
 11
-0.199999999999989
 21
17
 31
0.0
  0
LINE
100
AcDbEntity
  8
ノズル
  6
CONTINUOUS
 62
5
100
AcDbLine
 10
0.199999999999989
 20
17
 30
0.0
 11
1
 21
17.4618802153517
 31
0.0
  0
LINE
100
AcDbEntity
  8
ノズル
  6
CONTINUOUS
 62
5
100
AcDbLine
 10
1
 20
21
 30
0.0
 11
1
 21
17.4618802153517
 31
0.0
  0
LINE
100
AcDbEntity
  8
ノズル
  6
CONTINUOUS
 62
5
100
AcDbLine
 10
-2
 20
60
 30
0.0
 11
-2.00000000000001
 21
21.5773502691898
 31
0.0
  0
LINE
100
AcDbEntity
  8
ノズル
  6
CONTINUOUS
 62
5
100
AcDbLine
 10
-2
 20
21.5773502691896
 30
0.0
 11
-1
 21
21
 31
0.0
  0
LINE
100
AcDbEntity
  8
ノズル
  6
CONTINUOUS
 62
5
100
AcDbLine
 10
1
 20
21
 30
0.0
 11
2
 21
21.5773502691896
 31
0.0
  0
LINE
100
AcDbEntity
  8
ノズル
  6
CONTINUOUS
 62
5
100
AcDbLine
 10
2
 20
60
 30
0.0
 11
2
 21
21.5773502691896
 31
0.0
  0
ARC
100
AcDbEntity
  8
ノズル
  6
CONTINUOUS
 62
5
100
AcDbCircle
 10
0
 20
19.0022832989355
 30
0.0
 40
4.02222222222222
100
AcDbArc
 50
272.850136707084
 51
275.707356763832
  0
LINE
100
AcDbEntity
  8
ヒーターブロック
  6
CONTINUOUS
 62
5
100
AcDbLine
 10
-9.5
 20
-5.5
 30
0.0
 11
9.5
 21
-5.5
 31
0.0
  0
LINE
100
AcDbEntity
  8
ヒーターブロック
  6
CONTINUOUS
 62
5
100
AcDbLine
 10
9.5
 20
-5.5
 30
0.0
 11
9.5
 21
5.5
 31
0.0
  0
LINE
100
AcDbEntity
  8
ヒーターブロック
  6
CONTINUOUS
 62
5
100
AcDbLine
 10
9.5
 20
5.5
 30
0.0
 11
-9.5
 21
5.5
 31
0.0
  0
LINE
100
AcDbEntity
  8
ヒーターブロック
  6
CONTINUOUS
 62
5
100
AcDbLine
 10
-9.5
 20
5.5
 30
0.0
 11
-9.5
 21
-5.5
 31
0.0
  0
LINE
100
AcDbEntity
  8
ヒーターブロック
  6
CONTINUOUS
 62
5
100
AcDbLine
 10
20.5
 20
5.5
 30
0.0
 11
20.5
 21
-5.5
 31
0.0
  0
LINE
100
AcDbEntity
  8
ヒーターブロック
  6
CONTINUOUS
 62
5
100
AcDbLine
 10
20.5
 20
-5.5
 30
0.0
 11
41.5
 21
-5.5
 31
0.0
  0
LINE
100
AcDbEntity
  8
ヒーターブロック
  6
CONTINUOUS
 62
5
100
AcDbLine
 10
41.5
 20
5.5
 30
0.0
 11
41.5
 21
-5.5
 31
0.0
  0
LINE
100
AcDbEntity
  8
ヒーターブロック
  6
CONTINUOUS
 62
5
100
AcDbLine
 10
20.5
 20
5.5
 30
0.0
 11
41.5
 21
5.5
 31
0.0
  0
LINE
100
AcDbEntity
  8
ヒーターブロック
  6
CONTINUOUS
 62
5
100
AcDbLine
 10
9.5
 20
41
 30
0.0
 11
9.5
 21
20
 31
0.0
  0
LINE
100
AcDbEntity
  8
ヒーターブロック
  6
CONTINUOUS
 62
5
100
AcDbLine
 10
-9.5
 20
20
 30
0.0
 11
9.5
 21
20
 31
0.0
  0
LINE
100
AcDbEntity
  8
ヒーターブロック
  6
CONTINUOUS
 62
5
100
AcDbLine
 10
-9.5
 20
41
 30
0.0
 11
-9.5
 21
20
 31
0.0
  0
LINE
100
AcDbEntity
  8
ヒーターブロック
  6
CONTINUOUS
 62
5
100
AcDbLine
 10
-9.5
 20
41
 30
0.0
 11
9.5
 21
41
 31
0.0
  0
CIRCLE
100
AcDbEntity
  8
ヒーターブロック
  6
CONTINUOUS
 62
5
100
AcDbCircle
 10
0
 20
35
 30
0.0
 40
4
  0
LINE
100
AcDbEntity
  8
ヒーターブロック
  6
DASHED2
 62
5
100
AcDbLine
 10
-9.5
 20
23
 30
0.0
 11
9.5
 21
23
 31
0.0
  0
LINE
100
AcDbEntity
  8
ヒーターブロック
  6
DASHED2
 62
5
100
AcDbLine
 10
-9.5
 20
29
 30
0.0
 11
9.5
 21
29
 31
0.0
  0
LINE
100
AcDbEntity
  8
ヒーターブロック
  6
DASHED2
 62
5
100
AcDbLine
 10
31.5
 20
5.49999999999999
 30
0.0
 11
31.5
 21
-5.5
 31
0.0
  0
LINE
100
AcDbEntity
  8
ヒーターブロック
  6
DASHED2
 62
5
100
AcDbLine
 10
39.5
 20
5.5
 30
0.0
 11
39.5
 21
-5.5
 31
0.0
  0
CIRCLE
100
AcDbEntity
  8
ヒーターブロック
  6
CONTINUOUS
 62
5
100
AcDbCircle
 10
26.5
 20
0
 30
0.0
 40
3
  0
CIRCLE
100
AcDbEntity
  8
ヒーターブロック
  6
CONTINUOUS
 62
5
100
AcDbCircle
 10
0
 20
0
 30
0.0
 40
1.5
  0
CIRCLE
100
AcDbEntity
  8
ヒーターブロック
  6
CONTINUOUS
 62
5
100
AcDbCircle
 10
0
 20
0
 30
0.0
 40
1.25
  0
CIRCLE
100
AcDbEntity
  8
ヒーターブロック
  6
CONTINUOUS
 62
5
100
AcDbCircle
 10
0
 20
35
 30
0.0
 40
3.5
  0
LINE
100
AcDbEntity
  8
ヒーターブロック
  6
DASHED2
 62
5
100
AcDbLine
 10
32
 20
5.49999999999999
 30
0.0
 11
32
 21
-5.5
 31
0.0
  0
LINE
100
AcDbEntity
  8
ヒーターブロック
  6
DASHED2
 62
5
100
AcDbLine
 10
39
 20
5.5
 30
0.0
 11
39
 21
-5.5
 31
0.0
  0
LINE
100
AcDbEntity
  8
ヒーターブロック
  6
DASHED2
 62
5
100
AcDbLine
 10
20.5
 20
1.5
 30
0.0
 11
23.9019237886467
 21
1.5
 31
0.0
  0
LINE
100
AcDbEntity
  8
ヒーターブロック
  6
DASHED2
 62
5
100
AcDbLine
 10
20.5
 20
1.25
 30
0.0
 11
23.7728219713411
 21
1.25
 31
0.0
  0
LINE
100
AcDbEntity
  8
ヒーターブロック
  6
DASHED2
 62
5
100
AcDbLine
 10
20.5
 20
-1.25
 30
0.0
 11
23.7728219713411
 21
-1.25
 31
0.0
  0
LINE
100
AcDbEntity
  8
ヒーターブロック
  6
DASHED2
 62
5
100
AcDbLine
 10
20.5
 20
-1.5
 30
0.0
 11
23.9019237886467
 21
-1.5
 31
0.0
  0
CIRCLE
100
AcDbEntity
  8
組み図
  6
CONTINUOUS
 62
2
100
AcDbCircle
 10
133
 20
-100
 30
0.0
 40
2
  0
CIRCLE
100
AcDbEntity
  8
組み図
  6
CONTINUOUS
 62
2
100
AcDbCircle
 10
187
 20
-100
 30
0.0
 40
2
  0
CIRCLE
100
AcDbEntity
  8
組み図
  6
CONTINUOUS
 62
2
100
AcDbCircle
 10
133
 20
-100
 30
0.0
 40
1.65
  0
CIRCLE
100
AcDbEntity
  8
組み図
  6
CONTINUOUS
 62
2
100
AcDbCircle
 10
187
 20
-100
 30
0.0
 40
1.65
  0
LINE
100
AcDbEntity
  8
組み図
  6
CONTINUOUS
 62
2
100
AcDbLine
 10
198
 20
-92.5
 30
0.0
 11
198
 21
-107.5
 31
0.0
  0
LINE
100
AcDbEntity
  8
組み図
  6
DASHED2
 62
2
100
AcDbLine
 10
149
 20
-92.5
 30
0.0
 11
149
 21
-107.5
 31
0.0
  0
LINE
100
AcDbEntity
  8
組み図
  6
DASHED2
 62
2
100
AcDbLine
 10
157
 20
-92.5
 30
0.0
 11
157
 21
-107.5
 31
0.0
  0
LINE
100
AcDbEntity
  8
組み図
  6
DASHED2
 62
2
100
AcDbLine
 10
178.9
 20
-92.5
 30
0.0
 11
178.9
 21
-107.5
 31
0.0
  0
LINE
100
AcDbEntity
  8
組み図
  6
DASHED2
 62
2
100
AcDbLine
 10
184.1
 20
-92.5
 30
0.0
 11
184.1
 21
-107.5
 31
0.0
  0
LINE
100
AcDbEntity
  8
組み図
  6
DASHED2
 62
2
100
AcDbLine
 10
189.9
 20
-92.5
 30
0.0
 11
189.9
 21
-107.5
 31
0.0
  0
LINE
100
AcDbEntity
  8
組み図
  6
DASHED2
 62
2
100
AcDbLine
 10
195.1
 20
-92.5
 30
0.0
 11
195.1
 21
-107.5
 31
0.0
  0
LINE
100
AcDbEntity
  8
組み図
  6
CONTINUOUS
 62
2
100
AcDbLine
 10
128
 20
-107.5
 30
0.0
 11
198
 21
-107.5
 31
0.0
  0
LINE
100
AcDbEntity
  8
組み図
  6
CONTINUOUS
 62
2
100
AcDbLine
 10
128
 20
-92.5
 30
0.0
 11
128
 21
-107.5
 31
0.0
  0
LINE
100
AcDbEntity
  8
組み図
  6
CONTINUOUS
 62
2
100
AcDbLine
 10
128
 20
-92.5
 30
0.0
 11
198
 21
-92.5
 31
0.0
  0
LINE
100
AcDbEntity
  8
組み図
  6
CONTINUOUS
 62
8
100
AcDbLine
 10
128
 20
-47.5
 30
0.0
 11
128
 21
-107.5
 31
0.0
  0
LINE
100
AcDbEntity
  8
組み図
  6
CONTINUOUS
 62
8
100
AcDbLine
 10
128
 20
-107.5
 30
0.0
 11
198
 21
-107.5
 31
0.0
  0
LINE
100
AcDbEntity
  8
組み図
  6
CONTINUOUS
 62
8
100
AcDbLine
 10
198
 20
-47.5
 30
0.0
 11
198
 21
-107.5
 31
0.0
  0
LINE
100
AcDbEntity
  8
組み図
  6
CONTINUOUS
 62
8
100
AcDbLine
 10
128
 20
-47.5
 30
0.0
 11
198
 21
-47.5
 31
0.0
  0
LINE
100
AcDbEntity
  8
組み図
  6
CONTINUOUS
 62
8
100
AcDbLine
 10
132
 20
-98
 30
0.0
 11
134
 21
-98
 31
0.0
  0
ARC
100
AcDbEntity
  8
組み図
  6
CONTINUOUS
 62
8
100
AcDbCircle
 10
132
 20
-100
 30
0.0
 40
2
100
AcDbArc
 50
90
 51
270
  0
LINE
100
AcDbEntity
  8
組み図
  6
CONTINUOUS
 62
8
100
AcDbLine
 10
132
 20
-102
 30
0.0
 11
134
 21
-102
 31
0.0
  0
ARC
100
AcDbEntity
  8
組み図
  6
CONTINUOUS
 62
8
100
AcDbCircle
 10
134
 20
-100
 30
0.0
 40
2
100
AcDbArc
 50
270
 51
90
  0
LINE
100
AcDbEntity
  8
組み図
  6
CONTINUOUS
 62
8
100
AcDbLine
 10
186
 20
-98
 30
0.0
 11
188
 21
-98
 31
0.0
  0
ARC
100
AcDbEntity
  8
組み図
  6
CONTINUOUS
 62
8
100
AcDbCircle
 10
186
 20
-100
 30
0.0
 40
2
100
AcDbArc
 50
90
 51
270
  0
LINE
100
AcDbEntity
  8
組み図
  6
CONTINUOUS
 62
8
100
AcDbLine
 10
188
 20
-102
 30
0.0
 11
186
 21
-102
 31
0.0
  0
ARC
100
AcDbEntity
  8
組み図
  6
CONTINUOUS
 62
8
100
AcDbCircle
 10
188
 20
-100
 30
0.0
 40
2
100
AcDbArc
 50
270
 51
90
  0
CIRCLE
100
AcDbEntity
  8
組み図
  6
CONTINUOUS
 62
8
100
AcDbCircle
 10
160
 20
-85.5
 30
0.0
 40
6
  0
LINE
100
AcDbEntity
  8
組み図
  6
CENTER2
 62
8
100
AcDbLine
 10
143
 20
-64.5
 30
0.0
 11
177
 21
-64.5
 31
0.0
  0
LINE
100
AcDbEntity
  8
組み図
  6
CENTER2
 62
8
100
AcDbLine
 10
181
 20
-68.5
 30
0.0
 11
181
 21
-102.5
 31
0.0
  0
LINE
100
AcDbEntity
  8
組み図
  6
CENTER2
 62
8
100
AcDbLine
 10
143
 20
-106.5
 30
0.0
 11
177
 21
-106.5
 31
0.0
  0
LINE
100
AcDbEntity
  8
組み図
  6
CENTER2
 62
8
100
AcDbLine
 10
139
 20
-68.5
 30
0.0
 11
139
 21
-102.5
 31
0.0
  0
LINE
100
AcDbEntity
  8
組み図
  6
CENTER2
 62
8
100
AcDbLine
 10
177
 20
-64.5
 30
0.0
 11
181
 21
-68.5
 31
0.0
  0
LINE
100
AcDbEntity
  8
組み図
  6
CENTER2
 62
8
100
AcDbLine
 10
181
 20
-102.5
 30
0.0
 11
177
 21
-106.5
 31
0.0
  0
LINE
100
AcDbEntity
  8
組み図
  6
CENTER2
 62
8
100
AcDbLine
 10
143
 20
-106.5
 30
0.0
 11
139
 21
-102.5
 31
0.0
  0
LINE
100
AcDbEntity
  8
組み図
  6
CENTER2
 62
8
100
AcDbLine
 10
139
 20
-68.5
 30
0.0
 11
143
 21
-64.5
 31
0.0
  0
CIRCLE
100
AcDbEntity
  8
組み図
  6
CONTINUOUS
 62
8
100
AcDbCircle
 10
160
 20
-85.5
 30
0.0
 40
11
  0
CIRCLE
100
AcDbEntity
  8
組み図
  6
CONTINUOUS
 62
8
100
AcDbCircle
 10
160
 20
-85.5
 30
0.0
 40
6.5
  0
CIRCLE
100
AcDbEntity
  8
組み図
  6
CONTINUOUS
 62
8
100
AcDbCircle
 10
144.5
 20
-70
 30
0.0
 40
2.1
  0
CIRCLE
100
AcDbEntity
  8
組み図
  6
CONTINUOUS
 62
8
100
AcDbCircle
 10
175.5
 20
-70
 30
0.0
 40
2.1
  0
CIRCLE
100
AcDbEntity
  8
組み図
  6
CONTINUOUS
 62
8
100
AcDbCircle
 10
175.5
 20
-101
 30
0.0
 40
2.1
  0
CIRCLE
100
AcDbEntity
  8
組み図
  6
CONTINUOUS
 62
8
100
AcDbCircle
 10
144.5
 20
-101
 30
0.0
 40
2.1
  0
CIRCLE
100
AcDbEntity
  8
組み図
  6
CONTINUOUS
 62
8
100
AcDbCircle
 10
139
 20
-57.5
 30
0.0
 40
2
  0
CIRCLE
100
AcDbEntity
  8
組み図
  6
CONTINUOUS
 62
8
100
AcDbCircle
 10
139
 20
-57.5
 30
0.0
 40
1.65
  0
CIRCLE
100
AcDbEntity
  8
組み図
  6
CONTINUOUS
 62
5
100
AcDbCircle
 10
146.5
 20
-85.5
 30
0.0
 40
2.5
  0
CIRCLE
100
AcDbEntity
  8
組み図
  6
CONTINUOUS
 62
5
100
AcDbCircle
 10
146.5
 20
-85.5
 30
0.0
 40
2.1
  0
CIRCLE
100
AcDbEntity
  8
組み図
  6
CONTINUOUS
 62
5
100
AcDbCircle
 10
139
 20
-57.5
 30
0.0
 40
2
  0
CIRCLE
100
AcDbEntity
  8
組み図
  6
CONTINUOUS
 62
5
100
AcDbCircle
 10
146.5
 20
-85.5
 30
0.0
 40
6
  0
LINE
100
AcDbEntity
  8
組み図
  6
CONTINUOUS
 62
5
100
AcDbLine
 10
134
 20
-90.5
 30
0.0
 11
151.5
 21
-90.5
 31
0.0
  0
LINE
100
AcDbEntity
  8
組み図
  6
CONTINUOUS
 62
5
100
AcDbLine
 10
151.5
 20
-39.5
 30
0.0
 11
151.5
 21
-90.5
 31
0.0
  0
LINE
100
AcDbEntity
  8
組み図
  6
CONTINUOUS
 62
5
100
AcDbLine
 10
151.5
 20
-39.5
 30
0.0
 11
204
 21
-39.5
 31
0.0
  0
LINE
100
AcDbEntity
  8
組み図
  6
CONTINUOUS
 62
5
100
AcDbLine
 10
204
 20
-27.5
 30
0.0
 11
204
 21
-39.5
 31
0.0
  0
LINE
100
AcDbEntity
  8
組み図
  6
CONTINUOUS
 62
5
100
AcDbLine
 10
134
 20
-27.5
 30
0.0
 11
204
 21
-27.5
 31
0.0
  0
LINE
100
AcDbEntity
  8
組み図
  6
CONTINUOUS
 62
5
100
AcDbLine
 10
134
 20
-27.5
 30
0.0
 11
134
 21
-90.5
 31
0.0
  0
CIRCLE
100
AcDbEntity
  8
組み図
  6
CONTINUOUS
 62
5
100
AcDbCircle
 10
160
 20
-85.5
 30
0.0
 40
2.5
  0
CIRCLE
100
AcDbEntity
  8
組み図
  6
CONTINUOUS
 62
5
100
AcDbCircle
 10
160
 20
-85.5
 30
0.0
 40
5.00000000000007
  0
LINE
100
AcDbEntity
  8
組み図
  6
DASHED2
 62
5
100
AcDbLine
 10
162
 20
-87
 30
0.0
 11
164.769696007085
 21
-87
 31
0.0
  0
LINE
100
AcDbEntity
  8
組み図
  6
DASHED2
 62
5
100
AcDbLine
 10
162.165063509461
 20
-86.75
 30
0.0
 11
164.841229182759
 21
-86.75
 31
0.0
  0
LINE
100
AcDbEntity
  8
組み図
  6
DASHED2
 62
5
100
AcDbLine
 10
162.165063509461
 20
-84.25
 30
0.0
 11
164.841229182759
 21
-84.25
 31
0.0
  0
LINE
100
AcDbEntity
  8
組み図
  6
DASHED2
 62
5
100
AcDbLine
 10
162
 20
-84
 30
0.0
 11
164.769696007085
 21
-84
 31
0.0
  0
LINE
100
AcDbEntity
  8
組み図
  6
CONTINUOUS
 62
5
100
AcDbLine
 10
159.381798107884
 20
-79.6182018921162
 30
0.0
 11
160
 21
-79
 31
0.0
  0
LINE
100
AcDbEntity
  8
組み図
  6
CONTINUOUS
 62
5
100
AcDbLine
 10
158.648574009685
 20
-79.1420405952302
 30
0.0
 11
159.381798107884
 21
-79.6182018921164
 31
0.0
  0
LINE
100
AcDbEntity
  8
組み図
  6
CONTINUOUS
 62
5
100
AcDbLine
 10
158.172412712799
 20
-79.8752646934295
 30
0.0
 11
158.648574009685
 21
-79.1420405952302
 31
0.0
  0
LINE
100
AcDbEntity
  8
組み図
  6
CONTINUOUS
 62
5
100
AcDbLine
 10
157.356211820007
 20
-79.5619545253231
 30
0.0
 11
158.172412712799
 21
-79.8752646934296
 31
0.0
  0
LINE
100
AcDbEntity
  8
組み図
  6
CONTINUOUS
 62
5
100
AcDbLine
 10
157.042901651901
 20
-80.3781554181144
 30
0.0
 11
157.356211820007
 21
-79.5619545253231
 31
0.0
  0
LINE
100
AcDbEntity
  8
組み図
  6
CONTINUOUS
 62
5
100
AcDbLine
 10
156.179395860099
 20
-80.2413895365628
 30
0.0
 11
157.042901651901
 21
-80.3781554181144
 31
0.0
  0
LINE
100
AcDbEntity
  8
組み図
  6
CONTINUOUS
 62
5
100
AcDbLine
 10
156.042629978547
 20
-81.1048953283648
 30
0.0
 11
156.179395860099
 21
-80.2413895365628
 31
0.0
  0
LINE
100
AcDbEntity
  8
組み図
  6
CONTINUOUS
 62
5
100
AcDbLine
 10
155.169558634397
 20
-81.1506510586674
 30
0.0
 11
156.042629978548
 21
-81.1048953283648
 31
0.0
  0
LINE
100
AcDbEntity
  8
組み図
  6
CONTINUOUS
 62
5
100
AcDbLine
 10
155.2153143647
 20
-82.0237224028178
 30
0.0
 11
155.169558634397
 21
-81.1506510586674
 31
0.0
  0
LINE
100
AcDbEntity
  8
組み図
  6
CONTINUOUS
 62
5
100
AcDbLine
 10
154.370834875401
 20
-82.25
 30
0.0
 11
155.2153143647
 21
-82.0237224028177
 31
0.0
  0
LINE
100
AcDbEntity
  8
組み図
  6
CONTINUOUS
 62
5
100
AcDbLine
 10
154.597112472583
 20
-83.0944794892983
 30
0.0
 11
154.370834875401
 21
-82.25
 31
0.0
  0
LINE
100
AcDbEntity
  8
組み図
  6
CONTINUOUS
 62
5
100
AcDbLine
 10
153.818132644082
 20
-83.4913895365628
 30
0.0
 11
154.597112472584
 21
-83.0944794892982
 31
0.0
  0
LINE
100
AcDbEntity
  8
組み図
  6
CONTINUOUS
 62
5
100
AcDbLine
 10
154.215042691346
 20
-84.2703693650646
 30
0.0
 11
153.818132644082
 21
-83.4913895365628
 31
0.0
  0
LINE
100
AcDbEntity
  8
組み図
  6
CONTINUOUS
 62
5
100
AcDbLine
 10
153.535607680106
 20
-84.8205649887602
 30
0.0
 11
154.215042691346
 21
-84.2703693650644
 31
0.0
  0
LINE
100
AcDbEntity
  8
組み図
  6
CONTINUOUS
 62
5
100
AcDbLine
 10
154.085803303802
 20
-85.4999999999999
 30
0.0
 11
153.535607680106
 21
-84.8205649887602
 31
0.0
  0
LINE
100
AcDbEntity
  8
組み図
  6
CONTINUOUS
 62
5
100
AcDbLine
 10
153.535607680106
 20
-86.1794350112397
 30
0.0
 11
154.085803303802
 21
-85.4999999999997
 31
0.0
  0
LINE
100
AcDbEntity
  8
組み図
  6
CONTINUOUS
 62
5
100
AcDbLine
 10
154.215042691346
 20
-86.7296306349353
 30
0.0
 11
153.535607680106
 21
-86.1794350112397
 31
0.0
  0
LINE
100
AcDbEntity
  8
組み図
  6
CONTINUOUS
 62
5
100
AcDbLine
 10
153.818132644082
 20
-87.5086104634371
 30
0.0
 11
154.215042691346
 21
-86.729630634935
 31
0.0
  0
LINE
100
AcDbEntity
  8
組み図
  6
CONTINUOUS
 62
5
100
AcDbLine
 10
154.597112472583
 20
-87.9055205107016
 30
0.0
 11
153.818132644082
 21
-87.5086104634371
 31
0.0
  0
LINE
100
AcDbEntity
  8
組み図
  6
CONTINUOUS
 62
5
100
AcDbLine
 10
154.370834875401
 20
-88.75
 30
0.0
 11
154.597112472583
 21
-87.9055205107013
 31
0.0
  0
LINE
100
AcDbEntity
  8
組み図
  6
CONTINUOUS
 62
5
100
AcDbLine
 10
155.2153143647
 20
-88.9762775971821
 30
0.0
 11
154.370834875401
 21
-88.75
 31
0.0
  0
LINE
100
AcDbEntity
  8
組み図
  6
CONTINUOUS
 62
5
100
AcDbLine
 10
155.169558634397
 20
-89.8493489413326
 30
0.0
 11
155.2153143647
 21
-88.9762775971818
 31
0.0
  0
LINE
100
AcDbEntity
  8
組み図
  6
CONTINUOUS
 62
5
100
AcDbLine
 10
156.042629978547
 20
-89.8951046716351
 30
0.0
 11
155.169558634397
 21
-89.8493489413326
 31
0.0
  0
LINE
100
AcDbEntity
  8
組み図
  6
CONTINUOUS
 62
5
100
AcDbLine
 10
156.179395860099
 20
-90.7586104634371
 30
0.0
 11
156.042629978547
 21
-89.8951046716348
 31
0.0
  0
LINE
100
AcDbEntity
  8
組み図
  6
CONTINUOUS
 62
5
100
AcDbLine
 10
157.042901651901
 20
-90.6218445818856
 30
0.0
 11
156.179395860099
 21
-90.7586104634371
 31
0.0
  0
LINE
100
AcDbEntity
  8
組み図
  6
CONTINUOUS
 62
5
100
AcDbLine
 10
157.356211820007
 20
-91.4380454746769
 30
0.0
 11
157.042901651901
 21
-90.6218445818853
 31
0.0
  0
LINE
100
AcDbEntity
  8
組み図
  6
CONTINUOUS
 62
5
100
AcDbLine
 10
158.172412712799
 20
-91.1247353065705
 30
0.0
 11
157.356211820007
 21
-91.4380454746769
 31
0.0
  0
LINE
100
AcDbEntity
  8
組み図
  6
CONTINUOUS
 62
5
100
AcDbLine
 10
158.648574009685
 20
-91.8579594047697
 30
0.0
 11
158.172412712798
 21
-91.1247353065702
 31
0.0
  0
LINE
100
AcDbEntity
  8
組み図
  6
CONTINUOUS
 62
5
100
AcDbLine
 10
159.381798107884
 20
-91.3817981078837
 30
0.0
 11
158.648574009685
 21
-91.8579594047697
 31
0.0
  0
LINE
100
AcDbEntity
  8
組み図
  6
CONTINUOUS
 62
5
100
AcDbLine
 10
160
 20
-92
 30
0.0
 11
159.381798107884
 21
-91.3817981078835
 31
0.0
  0
LINE
100
AcDbEntity
  8
組み図
  6
CONTINUOUS
 62
5
100
AcDbLine
 10
160.618201892116
 20
-91.3817981078838
 30
0.0
 11
160
 21
-92
 31
0.0
  0
LINE
100
AcDbEntity
  8
組み図
  6
CONTINUOUS
 62
5
100
AcDbLine
 10
161.351425990315
 20
-91.8579594047697
 30
0.0
 11
160.618201892116
 21
-91.3817981078836
 31
0.0
  0
LINE
100
AcDbEntity
  8
組み図
  6
CONTINUOUS
 62
5
100
AcDbLine
 10
161.827587287201
 20
-91.1247353065705
 30
0.0
 11
161.351425990315
 21
-91.8579594047697
 31
0.0
  0
LINE
100
AcDbEntity
  8
組み図
  6
CONTINUOUS
 62
5
100
AcDbLine
 10
162.643788179993
 20
-91.4380454746769
 30
0.0
 11
161.827587287201
 21
-91.1247353065704
 31
0.0
  0
LINE
100
AcDbEntity
  8
組み図
  6
CONTINUOUS
 62
5
100
AcDbLine
 10
162.957098348099
 20
-90.6218445818856
 30
0.0
 11
162.643788179993
 21
-91.4380454746769
 31
0.0
  0
LINE
100
AcDbEntity
  8
組み図
  6
CONTINUOUS
 62
5
100
AcDbLine
 10
163.820604139901
 20
-90.7586104634372
 30
0.0
 11
162.957098348099
 21
-90.6218445818856
 31
0.0
  0
LINE
100
AcDbEntity
  8
組み図
  6
CONTINUOUS
 62
5
100
AcDbLine
 10
163.957370021453
 20
-89.8951046716352
 30
0.0
 11
163.820604139901
 21
-90.7586104634372
 31
0.0
  0
LINE
100
AcDbEntity
  8
組み図
  6
CONTINUOUS
 62
5
100
AcDbLine
 10
164.830441365603
 20
-89.8493489413326
 30
0.0
 11
163.957370021452
 21
-89.8951046716352
 31
0.0
  0
LINE
100
AcDbEntity
  8
組み図
  6
CONTINUOUS
 62
5
100
AcDbLine
 10
164.7846856353
 20
-88.9762775971821
 30
0.0
 11
164.830441365603
 21
-89.8493489413326
 31
0.0
  0
LINE
100
AcDbEntity
  8
組み図
  6
CONTINUOUS
 62
5
100
AcDbLine
 10
165.629165124599
 20
-88.75
 30
0.0
 11
164.7846856353
 21
-88.9762775971822
 31
0.0
  0
LINE
100
AcDbEntity
  8
組み図
  6
CONTINUOUS
 62
5
100
AcDbLine
 10
165.402887527417
 20
-87.9055205107016
 30
0.0
 11
165.629165124599
 21
-88.75
 31
0.0
  0
LINE
100
AcDbEntity
  8
組み図
  6
CONTINUOUS
 62
5
100
AcDbLine
 10
166.181867355918
 20
-87.5086104634372
 30
0.0
 11
165.402887527416
 21
-87.9055205107018
 31
0.0
  0
LINE
100
AcDbEntity
  8
組み図
  6
CONTINUOUS
 62
5
100
AcDbLine
 10
165.784957308654
 20
-86.7296306349354
 30
0.0
 11
166.181867355918
 21
-87.5086104634372
 31
0.0
  0
LINE
100
AcDbEntity
  8
組み図
  6
CONTINUOUS
 62
5
100
AcDbLine
 10
166.464392319894
 20
-86.1794350112397
 30
0.0
 11
165.784957308654
 21
-86.7296306349356
 31
0.0
  0
LINE
100
AcDbEntity
  8
組み図
  6
CONTINUOUS
 62
5
100
AcDbLine
 10
165.914196696198
 20
-85.5
 30
0.0
 11
166.464392319894
 21
-86.1794350112398
 31
0.0
  0
LINE
100
AcDbEntity
  8
組み図
  6
CONTINUOUS
 62
5
100
AcDbLine
 10
166.464392319894
 20
-84.8205649887603
 30
0.0
 11
165.914196696198
 21
-85.5000000000003
 31
0.0
  0
LINE
100
AcDbEntity
  8
組み図
  6
CONTINUOUS
 62
5
100
AcDbLine
 10
165.784957308654
 20
-84.2703693650647
 30
0.0
 11
166.464392319894
 21
-84.8205649887603
 31
0.0
  0
LINE
100
AcDbEntity
  8
組み図
  6
CONTINUOUS
 62
5
100
AcDbLine
 10
166.181867355919
 20
-83.4913895365628
 30
0.0
 11
165.784957308654
 21
-84.2703693650649
 31
0.0
  0
LINE
100
AcDbEntity
  8
組み図
  6
CONTINUOUS
 62
5
100
AcDbLine
 10
165.402887527417
 20
-83.0944794892984
 30
0.0
 11
166.181867355919
 21
-83.4913895365628
 31
0.0
  0
LINE
100
AcDbEntity
  8
組み図
  6
CONTINUOUS
 62
5
100
AcDbLine
 10
165.629165124599
 20
-82.25
 30
0.0
 11
165.402887527417
 21
-83.0944794892987
 31
0.0
  0
LINE
100
AcDbEntity
  8
組み図
  6
CONTINUOUS
 62
5
100
AcDbLine
 10
164.7846856353
 20
-82.0237224028179
 30
0.0
 11
165.629165124599
 21
-82.25
 31
0.0
  0
LINE
100
AcDbEntity
  8
組み図
  6
CONTINUOUS
 62
5
100
AcDbLine
 10
164.830441365603
 20
-81.1506510586674
 30
0.0
 11
164.7846856353
 21
-82.0237224028182
 31
0.0
  0
LINE
100
AcDbEntity
  8
組み図
  6
CONTINUOUS
 62
5
100
AcDbLine
 10
163.957370021453
 20
-81.1048953283649
 30
0.0
 11
164.830441365603
 21
-81.1506510586674
 31
0.0
  0
LINE
100
AcDbEntity
  8
組み図
  6
CONTINUOUS
 62
5
100
AcDbLine
 10
163.820604139901
 20
-80.2413895365628
 30
0.0
 11
163.957370021453
 21
-81.1048953283652
 31
0.0
  0
LINE
100
AcDbEntity
  8
組み図
  6
CONTINUOUS
 62
5
100
AcDbLine
 10
162.957098348099
 20
-80.3781554181144
 30
0.0
 11
163.820604139901
 21
-80.2413895365628
 31
0.0
  0
LINE
100
AcDbEntity
  8
組み図
  6
CONTINUOUS
 62
5
100
AcDbLine
 10
162.643788179993
 20
-79.5619545253231
 30
0.0
 11
162.957098348099
 21
-80.3781554181147
 31
0.0
  0
LINE
100
AcDbEntity
  8
組み図
  6
CONTINUOUS
 62
5
100
AcDbLine
 10
161.827587287201
 20
-79.8752646934295
 30
0.0
 11
162.643788179993
 21
-79.5619545253231
 31
0.0
  0
LINE
100
AcDbEntity
  8
組み図
  6
CONTINUOUS
 62
5
100
AcDbLine
 10
161.351425990315
 20
-79.1420405952302
 30
0.0
 11
161.827587287202
 21
-79.8752646934297
 31
0.0
  0
LINE
100
AcDbEntity
  8
組み図
  6
CONTINUOUS
 62
5
100
AcDbLine
 10
160.618201892116
 20
-79.6182018921162
 30
0.0
 11
161.351425990315
 21
-79.1420405952303
 31
0.0
  0
LINE
100
AcDbEntity
  8
組み図
  6
CONTINUOUS
 62
5
100
AcDbLine
 10
160
 20
-79
 30
0.0
 11
160.618201892116
 21
-79.6182018921164
 31
0.0
  0
LINE
100
AcDbEntity
  8
組み図
  6
CONTINUOUS
 62
2
100
AcDbLine
 10
11
 20
-92.5
 30
0.0
 11
-11
 21
-92.5
 31
0.0
  0
LINE
100
AcDbEntity
  8
組み図
  6
CONTINUOUS
 62
2
100
AcDbLine
 10
-11
 20
-92.5
 30
0.0
 11
-11
 21
-107.5
 31
0.0
  0
LINE
100
AcDbEntity
  8
組み図
  6
CONTINUOUS
 62
2
100
AcDbLine
 10
-11
 20
-107.5
 30
0.0
 11
11
 21
-107.5
 31
0.0
  0
LINE
100
AcDbEntity
  8
組み図
  6
CONTINUOUS
 62
2
100
AcDbLine
 10
11
 20
-107.5
 30
0.0
 11
11
 21
-92.5
 31
0.0
  0
LINE
100
AcDbEntity
  8
組み図
  6
CONTINUOUS
 62
5
100
AcDbLine
 10
-4
 20
-92.5
 30
0.0
 11
4
 21
-92.5
 31
0.0
  0
LINE
100
AcDbEntity
  8
組み図
  6
CONTINUOUS
 62
5
100
AcDbLine
 10
4
 20
-92.5
 30
0.0
 11
3.99999999999999
 21
-133.9
 31
0.0
  0
LINE
100
AcDbEntity
  8
組み図
  6
CONTINUOUS
 62
5
100
AcDbLine
 10
-4
 20
-92.5
 30
0.0
 11
-4
 21
-133.9
 31
0.0
  0
LINE
100
AcDbEntity
  8
組み図
  6
CONTINUOUS
 62
5
100
AcDbLine
 10
-4
 20
-133.9
 30
0.0
 11
-0.400000000000006
 21
-137.5
 31
0.0
  0
LINE
100
AcDbEntity
  8
組み図
  6
CONTINUOUS
 62
5
100
AcDbLine
 10
-2
 20
-130.92264973081
 30
0.0
 11
2
 21
-130.92264973081
 31
0.0
  0
LINE
100
AcDbEntity
  8
組み図
  6
CONTINUOUS
 62
5
100
AcDbLine
 10
-9.5
 20
-130.92264973081
 30
0.0
 11
9.5
 21
-130.92264973081
 31
0.0
  0
LINE
100
AcDbEntity
  8
組み図
  6
CONTINUOUS
 62
5
100
AcDbLine
 10
9.5
 20
-130.92264973081
 30
0.0
 11
9.5
 21
-119.92264973081
 31
0.0
  0
LINE
100
AcDbEntity
  8
組み図
  6
CONTINUOUS
 62
5
100
AcDbLine
 10
9.5
 20
-119.92264973081
 30
0.0
 11
-9.5
 21
-119.92264973081
 31
0.0
  0
LINE
100
AcDbEntity
  8
組み図
  6
CONTINUOUS
 62
5
100
AcDbLine
 10
-9.5
 20
-119.92264973081
 30
0.0
 11
-9.5
 21
-130.92264973081
 31
0.0
  0
CIRCLE
100
AcDbEntity
  8
組み図
  6
CONTINUOUS
 62
5
100
AcDbCircle
 10
0
 20
-125.42264973081
 30
0.0
 40
1.5
  0
CIRCLE
100
AcDbEntity
  8
組み図
  6
CONTINUOUS
 62
5
100
AcDbCircle
 10
0
 20
-125.42264973081
 30
0.0
 40
1.25
  0
LINE
100
AcDbEntity
  8
組み図
  6
CONTINUOUS
 62
5
100
AcDbLine
 10
-6.99999999999994
 20
-79
 30
0.0
 11
-7
 21
-92
 31
0.0
  0
LINE
100
AcDbEntity
  8
組み図
  6
CONTINUOUS
 62
5
100
AcDbLine
 10
6.00000000000003
 20
-79
 30
0.0
 11
6.00000000000006
 21
-92.0000000000002
 31
0.0
  0
LINE
100
AcDbEntity
  8
組み図
  6
CONTINUOUS
 62
5
100
AcDbLine
 10
10.5
 20
-80.5
 30
0.0
 11
6
 21
-80.5
 31
0.0
  0
LINE
100
AcDbEntity
  8
組み図
  6
CONTINUOUS
 62
5
100
AcDbLine
 10
10.5
 20
-80.5
 30
0.0
 11
10.5
 21
-90.5
 31
0.0
  0
LINE
100
AcDbEntity
  8
組み図
  6
CONTINUOUS
 62
5
100
AcDbLine
 10
10.5
 20
-90.5
 30
0.0
 11
6.00000000000003
 21
-90.5
 31
0.0
  0
CIRCLE
100
AcDbEntity
  8
組み図
  6
CONTINUOUS
 62
5
100
AcDbCircle
 10
8.00000000000003
 20
-85.5
 30
0.0
 40
1.5
  0
CIRCLE
100
AcDbEntity
  8
組み図
  6
CONTINUOUS
 62
5
100
AcDbCircle
 10
8.00000000000003
 20
-85.5
 30
0.0
 40
1.25
  0
LINE
100
AcDbEntity
  8
組み図
  6
CONTINUOUS
 62
5
100
AcDbLine
 10
2.8421709430404E-14
 20
-79.9000000000001
 30
0.0
 11
-8.5265128291212E-14
 21
-91.1
 31
0.0
  0
LINE
100
AcDbEntity
  8
組み図
  6
CONTINUOUS
 62
5
100
AcDbLine
 10
6.00000000000003
 20
-79
 30
0.0
 11
0.999999999999062
 21
-79
 31
0.0
  0
LINE
100
AcDbEntity
  8
組み図
  6
CONTINUOUS
 62
5
100
AcDbLine
 10
0.999999999999062
 20
-79
 30
0.0
 11
2.8421709430404E-14
 21
-80.0000000000001
 31
0.0
  0
LINE
100
AcDbEntity
  8
組み図
  6
CONTINUOUS
 62
5
100
AcDbLine
 10
2.8421709430404E-14
 20
-80.0000000000001
 30
0.0
 11
-1.00000000000074
 21
-78.9999999999999
 31
0.0
  0
LINE
100
AcDbEntity
  8
組み図
  6
CONTINUOUS
 62
5
100
AcDbLine
 10
-1.00000000000074
 20
-78.9999999999999
 30
0.0
 11
-6.99999999999994
 21
-79
 31
0.0
  0
LINE
100
AcDbEntity
  8
組み図
  6
CONTINUOUS
 62
5
100
AcDbLine
 10
-0.999999999999972
 20
-92.0000000000001
 30
0.0
 11
-7
 21
-92
 31
0.0
  0
LINE
100
AcDbEntity
  8
組み図
  6
CONTINUOUS
 62
5
100
AcDbLine
 10
-8.5265128291212E-14
 20
-91
 30
0.0
 11
-0.999999999999972
 21
-92.0000000000001
 31
0.0
  0
LINE
100
AcDbEntity
  8
組み図
  6
CONTINUOUS
 62
5
100
AcDbLine
 10
0.999999999996817
 20
-91.9999999999999
 30
0.0
 11
-8.5265128291212E-14
 21
-91
 31
0.0
  0
LINE
100
AcDbEntity
  8
組み図
  6
CONTINUOUS
 62
5
100
AcDbLine
 10
6.00000000000006
 20
-92.0000000000002
 30
0.0
 11
0.999999999996817
 21
-91.9999999999999
 31
0.0
  0
LINE
100
AcDbEntity
  8
組み図
  6
CONTINUOUS
 62
5
100
AcDbLine
 10
0.999999999999062
 20
-79
 30
0.0
 11
0.999999999996817
 21
-91.9999999999999
 31
0.0
  0
LINE
100
AcDbEntity
  8
組み図
  6
CONTINUOUS
 62
5
100
AcDbLine
 10
-0.999999999999972
 20
-92.0000000000001
 30
0.0
 11
-1.00000000000074
 21
-78.9999999999999
 31
0.0
  0
LINE
100
AcDbEntity
  8
組み図
  6
CONTINUOUS
 62
8
100
AcDbLine
 10
11
 20
-47.5
 30
0.0
 11
11
 21
-107.5
 31
0.0
  0
LINE
100
AcDbEntity
  8
組み図
  6
CONTINUOUS
 62
8
100
AcDbLine
 10
14
 20
-47.5
 30
0.0
 11
14
 21
-107.5
 31
0.0
  0
LINE
100
AcDbEntity
  8
組み図
  6
CONTINUOUS
 62
8
100
AcDbLine
 10
11
 20
-47.5
 30
0.0
 11
14
 21
-47.5
 31
0.0
  0
LINE
100
AcDbEntity
  8
組み図
  6
CONTINUOUS
 62
8
100
AcDbLine
 10
11
 20
-107.5
 30
0.0
 11
14
 21
-107.5
 31
0.0
  0
LINE
100
AcDbEntity
  8
組み図
  6
CENTER2
 62
8
100
AcDbLine
 10
14
 20
-106.5
 30
0.0
 11
61
 21
-106.5
 31
0.0
  0
LINE
100
AcDbEntity
  8
組み図
  6
CENTER2
 62
8
100
AcDbLine
 10
61
 20
-64.5
 30
0.0
 11
61
 21
-106.5
 31
0.0
  0
LINE
100
AcDbEntity
  8
組み図
  6
CENTER2
 62
8
100
AcDbLine
 10
14
 20
-64.5
 30
0.0
 11
61
 21
-64.5
 31
0.0
  0
LINE
100
AcDbEntity
  8
組み図
  6
CONTINUOUS
 62
8
100
AcDbLine
 10
-89
 20
-47.5
 30
0.0
 11
-89
 21
-107.5
 31
0.0
  0
LINE
100
AcDbEntity
  8
組み図
  6
CONTINUOUS
 62
8
100
AcDbLine
 10
-86
 20
-47.5
 30
0.0
 11
-86
 21
-107.5
 31
0.0
  0
LINE
100
AcDbEntity
  8
組み図
  6
CONTINUOUS
 62
8
100
AcDbLine
 10
-89
 20
-47.5
 30
0.0
 11
-86
 21
-47.5
 31
0.0
  0
LINE
100
AcDbEntity
  8
組み図
  6
CONTINUOUS
 62
8
100
AcDbLine
 10
-89
 20
-107.5
 30
0.0
 11
-86
 21
-107.5
 31
0.0
  0
LINE
100
AcDbEntity
  8
組み図
  6
CONTINUOUS
 62
5
100
AcDbLine
 10
-95
 20
-90.5
 30
0.0
 11
-90
 21
-90.5000000000002
 31
0.0
  0
LINE
100
AcDbEntity
  8
組み図
  6
CONTINUOUS
 62
5
100
AcDbLine
 10
-90
 20
-27.5
 30
0.0
 11
-90
 21
-90.5
 31
0.0
  0
LINE
100
AcDbEntity
  8
組み図
  6
CONTINUOUS
 62
5
100
AcDbLine
 10
-95
 20
-27.5
 30
0.0
 11
-90
 21
-27.5
 31
0.0
  0
LINE
100
AcDbEntity
  8
組み図
  6
CONTINUOUS
 62
5
100
AcDbLine
 10
-95
 20
-27.5
 30
0.0
 11
-95
 21
-90.5
 31
0.0
  0
LINE
100
AcDbEntity
  8
組み図
  6
CONTINUOUS
 62
8
100
AcDbLine
 10
-100
 20
-54.25
 30
0.0
 11
-100
 21
-60.75
 31
0.0
  0
LINE
100
AcDbEntity
  8
組み図
  6
CONTINUOUS
 62
8
100
AcDbLine
 10
-100
 20
-60.75
 30
0.0
 11
-96
 21
-60.75
 31
0.0
  0
LINE
100
AcDbEntity
  8
組み図
  6
CONTINUOUS
 62
8
100
AcDbLine
 10
-96
 20
-54.25
 30
0.0
 11
-96
 21
-60.75
 31
0.0
  0
LINE
100
AcDbEntity
  8
組み図
  6
CONTINUOUS
 62
8
100
AcDbLine
 10
-100
 20
-54.25
 30
0.0
 11
-96
 21
-54.25
 31
0.0
  0
LINE
100
AcDbEntity
  8
組み図
  6
CONTINUOUS
 62
8
100
AcDbLine
 10
139
 20
-53.4585481156726
 30
0.0
 11
135.5
 21
-55.4792740578363
 31
0.0
  0
LINE
100
AcDbEntity
  8
組み図
  6
CONTINUOUS
 62
8
100
AcDbLine
 10
135.5
 20
-55.4792740578363
 30
0.0
 11
135.5
 21
-59.5207259421637
 31
0.0
  0
LINE
100
AcDbEntity
  8
組み図
  6
CONTINUOUS
 62
8
100
AcDbLine
 10
135.5
 20
-59.5207259421637
 30
0.0
 11
139
 21
-61.5414518843274
 31
0.0
  0
LINE
100
AcDbEntity
  8
組み図
  6
CONTINUOUS
 62
8
100
AcDbLine
 10
139
 20
-61.5414518843274
 30
0.0
 11
142.5
 21
-59.5207259421637
 31
0.0
  0
LINE
100
AcDbEntity
  8
組み図
  6
CONTINUOUS
 62
8
100
AcDbLine
 10
142.5
 20
-59.5207259421637
 30
0.0
 11
142.5
 21
-55.4792740578363
 31
0.0
  0
LINE
100
AcDbEntity
  8
組み図
  6
CONTINUOUS
 62
8
100
AcDbLine
 10
142.5
 20
-55.4792740578363
 30
0.0
 11
139
 21
-53.4585481156726
 31
0.0
  0
LINE
100
AcDbEntity
  8
組み図
  6
CONTINUOUS
 62
8
100
AcDbLine
 10
-86
 20
-61.5414518843274
 30
0.0
 11
-82
 21
-61.5414518843274
 31
0.0
  0
LINE
100
AcDbEntity
  8
組み図
  6
CONTINUOUS
 62
8
100
AcDbLine
 10
-82.0000000000001
 20
-53.4585481156726
 30
0.0
 11
-82
 21
-61.5414518843274
 31
0.0
  0
LINE
100
AcDbEntity
  8
組み図
  6
CONTINUOUS
 62
8
100
AcDbLine
 10
-86
 20
-53.4585481156726
 30
0.0
 11
-82.0000000000001
 21
-53.4585481156726
 31
0.0
  0
LINE
100
AcDbEntity
  8
組み図
  6
CONTINUOUS
 62
8
100
AcDbLine
 10
-96
 20
-59.5
 30
0.0
 11
-81.0000000000001
 21
-59.5
 31
0.0
  0
LINE
100
AcDbEntity
  8
組み図
  6
CONTINUOUS
 62
8
100
AcDbLine
 10
-81
 20
-55.5
 30
0.0
 11
-81
 21
-59.5
 31
0.0
  0
LINE
100
AcDbEntity
  8
組み図
  6
CONTINUOUS
 62
8
100
AcDbLine
 10
-96
 20
-55.5
 30
0.0
 11
-81.0000000000001
 21
-55.5
 31
0.0
  0
LINE
100
AcDbEntity
  8
組み図
  6
CONTINUOUS
 62
8
100
AcDbLine
 10
-96
 20
-80
 30
0.0
 11
-96
 21
-90.9999999999999
 31
0.0
  0
LINE
100
AcDbEntity
  8
組み図
  6
CONTINUOUS
 62
8
100
AcDbLine
 10
-99.9999999999999
 20
-80
 30
0.0
 11
-100
 21
-91.0000000000001
 31
0.0
  0
LINE
100
AcDbEntity
  8
組み図
  6
CONTINUOUS
 62
8
100
AcDbLine
 10
-104
 20
-80
 30
0.0
 11
-104
 21
-91
 31
0.0
  0
LINE
100
AcDbEntity
  8
組み図
  6
CONTINUOUS
 62
8
100
AcDbLine
 10
-103.5
 20
-79.5
 30
0.0
 11
-100.5
 21
-79.5
 31
0.0
  0
LINE
100
AcDbEntity
  8
組み図
  6
CONTINUOUS
 62
8
100
AcDbLine
 10
-103.5
 20
-91.5
 30
0.0
 11
-100.5
 21
-91.5
 31
0.0
  0
ARC
100
AcDbEntity
  8
組み図
  6
CONTINUOUS
 62
8
100
AcDbCircle
 10
-103.5
 20
-80
 30
0.0
 40
0.5
100
AcDbArc
 50
90.0000000000033
 51
180
  0
ARC
100
AcDbEntity
  8
組み図
  6
CONTINUOUS
 62
8
100
AcDbCircle
 10
-103.5
 20
-91
 30
0.0
 40
0.5
100
AcDbArc
 50
180
 51
270.000000000003
  0
ARC
100
AcDbEntity
  8
組み図
  6
CONTINUOUS
 62
8
100
AcDbCircle
 10
-100.5
 20
-91
 30
0.0
 40
0.5
100
AcDbArc
 50
270.000000000002
 51
5.6843418860808E-14
  0
ARC
100
AcDbEntity
  8
組み図
  6
CONTINUOUS
 62
8
100
AcDbCircle
 10
-100.5
 20
-80
 30
0.0
 40
0.5
100
AcDbArc
 50
0
 51
90.0000000000016
  0
LINE
100
AcDbEntity
  8
組み図
  6
CONTINUOUS
 62
8
100
AcDbLine
 10
-99.4999999999999
 20
-79.5
 30
0.0
 11
-96.5
 21
-79.5
 31
0.0
  0
LINE
100
AcDbEntity
  8
組み図
  6
CONTINUOUS
 62
8
100
AcDbLine
 10
-99.4999999999999
 20
-91.5000000000001
 30
0.0
 11
-96.5
 21
-91.4999999999999
 31
0.0
  0
ARC
100
AcDbEntity
  8
組み図
  6
CONTINUOUS
 62
8
100
AcDbCircle
 10
-99.4999999999999
 20
-91.0000000000001
 30
0.0
 40
0.5
100
AcDbArc
 50
179.999999999998
 51
270
  0
ARC
100
AcDbEntity
  8
組み図
  6
CONTINUOUS
 62
8
100
AcDbCircle
 10
-99.4999999999999
 20
-80
 30
0.0
 40
0.5
100
AcDbArc
 50
90
 51
179.999999999998
  0
ARC
100
AcDbEntity
  8
組み図
  6
CONTINUOUS
 62
8
100
AcDbCircle
 10
-96.5
 20
-80
 30
0.0
 40
0.5
100
AcDbArc
 50
0
 51
90.0000000000016
  0
ARC
100
AcDbEntity
  8
組み図
  6
CONTINUOUS
 62
8
100
AcDbCircle
 10
-96.5
 20
-90.9999999999999
 30
0.0
 40
0.5
100
AcDbArc
 50
270
 51
0
  0
LINE
100
AcDbEntity
  8
組み図
  6
CONTINUOUS
 62
8
100
AcDbLine
 10
-105
 20
-88
 30
0.0
 11
-90
 21
-87.9999999999999
 31
0.0
  0
LINE
100
AcDbEntity
  8
組み図
  6
CONTINUOUS
 62
8
100
AcDbLine
 10
-105
 20
-83
 30
0.0
 11
-90
 21
-82.9999999999999
 31
0.0
  0
LINE
100
AcDbEntity
  8
組み図
  6
CONTINUOUS
 62
8
100
AcDbLine
 10
-110
 20
-81.5
 30
0.0
 11
-110
 21
-89.5
 31
0.0
  0
LINE
100
AcDbEntity
  8
組み図
  6
CONTINUOUS
 62
8
100
AcDbLine
 10
-110
 20
-89.5
 30
0.0
 11
-105
 21
-89.5
 31
0.0
  0
LINE
100
AcDbEntity
  8
組み図
  6
CONTINUOUS
 62
8
100
AcDbLine
 10
-105
 20
-81.5
 30
0.0
 11
-105
 21
-89.5
 31
0.0
  0
LINE
100
AcDbEntity
  8
組み図
  6
CONTINUOUS
 62
8
100
AcDbLine
 10
-110
 20
-81.5
 30
0.0
 11
-105
 21
-81.5
 31
0.0
  0
ARC
100
AcDbEntity
  8
組み図
  6
CONTINUOUS
 62
5
100
AcDbCircle
 10
0
 20
-133.497716701064
 30
0.0
 40
4.02222222222222
100
AcDbArc
 50
264.292643236167
 51
275.707356763833
  0
LINE
100
AcDbEntity
  8
組み図
  6
CONTINUOUS
 62
5
100
AcDbLine
 10
0.400000000000027
 20
-137.5
 30
0.0
 11
4
 21
-133.9
 31
0.0
  0
LINE
100
AcDbEntity
  8
受け
  6
CONTINUOUS
 62
2
100
AcDbLine
 10
42.5
 20
-4.5
 30
0.0
 11
46.5
 21
-4.5
 31
0.0
  0
ARC
100
AcDbEntity
  8
受け
  6
CONTINUOUS
 62
2
100
AcDbCircle
 10
46.5
 20
1.30689110327304E-15
 30
0.0
 40
4.5
100
AcDbArc
 50
270
 51
90
  0
LINE
100
AcDbEntity
  8
受け
  6
CONTINUOUS
 62
2
100
AcDbLine
 10
42.5
 20
4.5
 30
0.0
 11
46.5
 21
4.5
 31
0.0
  0
ARC
100
AcDbEntity
  8
受け
  6
CONTINUOUS
 62
2
100
AcDbCircle
 10
42.5
 20
1.30689110327304E-15
 30
0.0
 40
4.5
100
AcDbArc
 50
90
 51
270
  0
LINE
100
AcDbEntity
  8
受け
  6
CONTINUOUS
 62
2
100
AcDbLine
 10
72.5
 20
-4.5
 30
0.0
 11
76.5
 21
-4.5
 31
0.0
  0
ARC
100
AcDbEntity
  8
受け
  6
CONTINUOUS
 62
2
100
AcDbCircle
 10
76.5
 20
2.06818689158743E-15
 30
0.0
 40
4.5
100
AcDbArc
 50
270
 51
90
  0
LINE
100
AcDbEntity
  8
受け
  6
CONTINUOUS
 62
2
100
AcDbLine
 10
72.5
 20
4.5
 30
0.0
 11
76.5
 21
4.5
 31
0.0
  0
ARC
100
AcDbEntity
  8
受け
  6
CONTINUOUS
 62
2
100
AcDbCircle
 10
72.5
 20
2.06818689158743E-15
 30
0.0
 40
4.5
100
AcDbArc
 50
90
 51
270
  0
LINE
100
AcDbEntity
  8
受け
  6
DASHED2
 62
2
100
AcDbLine
 10
7
 20
28
 30
0.0
 11
11
 21
28
 31
0.0
  0
LINE
100
AcDbEntity
  8
受け
  6
DASHED2
 62
2
100
AcDbLine
 10
7
 20
41
 30
0.0
 11
7
 21
28
 31
0.0
  0
LINE
100
AcDbEntity
  8
受け
  6
DASHED2
 62
2
100
AcDbLine
 10
7
 20
41
 30
0.0
 11
11
 21
41
 31
0.0
  0
LINE
100
AcDbEntity
  8
受け
  6
DASHED2
 62
2
100
AcDbLine
 10
7
 20
58
 30
0.0
 11
11
 21
58
 31
0.0
  0
LINE
100
AcDbEntity
  8
受け
  6
DASHED2
 62
2
100
AcDbLine
 10
7
 20
71
 30
0.0
 11
7
 21
58
 31
0.0
  0
LINE
100
AcDbEntity
  8
受け
  6
DASHED2
 62
2
100
AcDbLine
 10
7
 20
71
 30
0.0
 11
11
 21
71
 31
0.0
  0
LINE
100
AcDbEntity
  8
受け
  6
DASHED2
 62
2
100
AcDbLine
 10
-9.26331885367711E-15
 20
75
 30
0.0
 11
11
 21
75
 31
0.0
  0
ENDSEC
  0
EOF
